E-Chords
Thin Lizzy

Spirit Slips Away(Chords)

Thin Lizzy

Key: Em
Intro 

e|--------|---------|--------|--------|-------|---------| 
B|--------|---------|--------|--------|-------|---------| 
G|--------|---------|--------|--------|-------|---------| 
D|--------|---------|--------|--------|-------|---------| 
A|----7~--|-----5~--|--------|-----7~-|-----5~|---------| 
E|0-5-----|-0-5-----|-0-5-5~-|-0-5----|-0-5---|--0-5-7~-| 

e|--------|---------|--------|--------|-------|---------| 
B|--------|---------|--------|--------|-------|---------| 
G|--------|---------|--------|--------|-------|---------| 
D|--------|---------|--------|--------|-------|---------| 
A|----7~--|-----5~--|-----3~-|-----7~-|-----2~|------7~-| 
E|0-5-----|-0-5-----|-0-5----|-0-5----|-0-5---|--0-5----| 

Verse 1:

Em7 G/D Am7 Am7 When the spirit slips away Em7 G/D Bm7 Bm7 There's nothing you can do, there's nothing you can say Em7 G/D Cmaj7 C May the angels, be watching over you Em7 Bm7 Em7 G/D When your spirit slips away

Verse 2:

Em7 G/D Am7 Am7 When the darkness, starts to fall Em7 G/D Bm7 Bm7 You're on your own and your back's against the wall Em7 G/D Cmaj7 C May the angels, bring their flame, to you Em7 Bm7 Em7 Em7 When the darkness it starts to fall
Solo 
  I've written this out phrase by phrase so you can work on each part individually 
e|-----------|-----------|------------|------|-------------|-5--------------------| 
B|-3/8--8b10~|-8b10r8p5~~|------------|------|-------------|-5-8b10r8p5-----------| 
G|-----------|-----------|-pb9r7p5-7~-|5b----|-5-7b9r7p5-7-|------------7b9r7p5~h7| 
D|-----------|-----------|------------|---7~~|-------------|----------------------| 
A|-----------|-----------|------------|------|-------------|----------------------| 
E|-----------|-----------|------------|------|-------------|----------------------| 

e|---------------------|-----------------15---------|----------------------------| 
B|---------------------|-----13-15-15b17----15b17~~~|17r15-13--------------------| 
G|----5-7b9-r7p5-------|-/14------------------------|---------14-14~~------------| 
D|5h7------------7-----|----------------------------|----------------------------| 
A|-----------------7~~-|----------------------------|----------------------------| 
E|---------------------|----------------------------|----------------------------| 

e|-----------------|-15-15-15/17~-17p15~~|-17p15-12-------|----------------------| 
B|-------------13~~|---------------------|----------15-13-|12-13-15-15b17r15p13--| 
G|-------12-14-----|---------------------|----------------|--------------------14| 
D|-12h14-----------|---------------------|----------------|----------------------| 
A|-----------------|---------------------|----------------|----------------------| 
E|-----------------|---------------------|----------------|----------------------| 

e|------------------|---------------------------------------------------------| 
B|-12-13-15-15b17~~~|---------------------------------------------------------| 
G|------------------|---------------------------------------------------------| 
D|------------------|---------------------------------------------------------| 
A|------------------|---------------------------------------------------------| 
E|------------------|---------------------------------------------------------| 

Main Riff 
e|--------|---------|--------|--------|-------|---------| 
B|--------|---------|--------|--------|-------|---------| 
G|--------|---------|--------|--------|-------|---------| 
D|--------|---------|--------|--------|-------|---------| 
A|----7~--|-----5~--|--------|-----7~-|-----5~|---------| 
E|0-5-----|-0-5-----|-0-5-5~-|-0-5----|-0-5---|--0-5-7~-| 

e|--------|---------|--------|--------|-------|---------| 
B|--------|---------|--------|--------|-------|---------| 
G|--------|---------|--------|--------|-------|---------| 
D|--------|---------|--------|--------|-------|---------| 
A|----7~--|-----5~--|-----3~-|-----7~-|-----2~|------7~-| 
E|0-5-----|-0-5-----|-0-5----|-0-5----|-0-5---|--0-5----| 

verse 3 
Em7             G/D            Am7       Am7 
And when the music that makes you blue 
e|---------------------------------------------------------------------------| 
B|-------------------------------------10-10b12-8~~~-------------------------| 
G|---------------------------------------------------------------------------| 
D|---------------------------------------------------------------------------| 
A|---------------------------------------------------------------------------| 
E|---------------------------------------------------------------------------| 

Em7              G/D    Bm7                     Bm7 
Unfolds its secrets, the mysteries are told to you 
e|---------------------------------------------12h15p12---------------------| 
B|------------------------------------------------------15-12h15p12---------| 
G|------------------------------------------------------------------14-12/11| 
D|--------------------------------------------------------------------------| 
A|--------------------------------------------------------------------------| 
E|--------------------------------------------------------------------------| 
Em7 G/D Cmaj7 C May the angels, sing rejoice to you Em7 Bm7 Em7 G/D That fateful day when your spirit slips away Interlude Philo does some vocal 'mmhmmm' adlibs Chord structure remains the same as the Verse: Em7-G/D-Am7-Am7 Em7-G/D-Bm7-Bm7 Em7-G/D-Cmaj7-C Em7-Bm7-Em7-G/D

roll up this ad to continue

share this page

See Also: