E-Chords
The War On Drugs

Nothing To Find(Chords)

The War On Drugs

roll up this ad to continue

Key: C
Intro 
e|--------|-------------|-------------------|-----------------|-------------|| 
B|-8--5-6-|-6-5---------|-------------------|-----------------|-------------|| 
G|--------|-----5-----5-|-----7-7-7-5-7-7/9-|-----5---5h7-7-7-|-7-5---5~----|| 
D|--------|-------5-7---|-(5)---------------|-7-7---7---------|-----7-------|| 
A|--------|-------------|-------------------|-----------------|-------------|| 
E|--------|-------------|-------------------|-----------------|-------------|| 

Repeat twice 

e|--------------------------------------------------------------------------|| 
B|---------------8---8------------------------------------------------------|| 
G|-7-7-7-7-5-5/9---9--------------------------------------------------------|| 
D|--------------------------------------------------------------------------|| 
A|--------------------------------------------------------------------------|| 
E|--------------------------------------------------------------------------|| 
Verse: 1 C Dm F Oh, I'm rising from within G Am I see it every morning Em F* Tell me where the river ends C Dm 'Is it cold without my love?' F G I whisper through the screen Am Em And there is nothing I can say or do F* No in between Am G Oh, and all these changes, I don't understand Am I keep moving to the edge and now Em Comes the feeling I can't stop
e|-----------------------------------|| 
B|-----------------------------------|| 
D|-7-5--------5-7-----5-5------------|| 
G|-----7--5-7-----5-7----------------|| 
A|-----------------------------------|| 
E|-----------------------------------|| 

e|-----------------------8--10-------|| 
B|-----------------------------10----|| 
D|-----5-7-7-7p5---5-----------------|| 
G|-5-7-----------7-------------------|| 
A|-----------------------------------|| 
E|-----------------------------------|| 

Laying motionless and dead 
Oh, you said 


e|--------|-------------|-------------------|-----------------|-------------|| 
B|-8--5-6-|-6-5---------|-------------------|-----------------|-------------|| 
D|--------|-----5-----5-|-----7-7-7-5-7-7/9-|-----5---5h7-7-7-|-7-5---5~----|| 
G|--------|-------5-7---|-(5)---------------|-7-7---7---------|-----7-------|| 
A|--------|-------------|-------------------|-----------------|-------------|| 
E|--------|-------------|-------------------|-----------------|-------------|| 

e|--------------------------------------------------------------------------|| 
B|---------------8---8------------------------------------------------------|| 
D|-7-7-7-7-5-5/9---9--------------------------------------------------------|| 
G|--------------------------------------------------------------------------|| 
A|--------------------------------------------------------------------------|| 
E|--------------------------------------------------------------------------|| 

verse 2 
Same as verse 1: 
  C Dm  F G Am  Em F* 
e|-3-5-|-1-3-5-|-7--8-----|| 
B|-5-6-|-1-3-5-|-8-10----o|| 
D|-5-7-|-2-4-5-|-9-10-----|| 
G|-5-7-|-3-5-7-|-9-10-----|| x2 
A|-3-5-|-3-5-7-|-7--8----o|| 
E|-----|-1-3-5-|----------|| 

  Am  G Am  Em 
e|-5-|-3-5-|-7------------|| 
B|-5-|-3-5-|-8------------|| 
D|-5-|-4-5-|-9------------|| 
G|-7-|-5-7-|-9------------|| 
A|-7-|-5-7-|-7------------|| 
E|-5-|-3-5-|--------------|| 
You played my brother like fire And walked him through the rain I ignored another call He did the same But the feeling that I get The warmth of your embrace There is nothing I can do or find another way It was all so innocent You could feel my loving arms Then I saw you in the moving light You were standing in my door
e|----------------------------------------------|| 
B|----------------------------------------------|| 
D|-7-5--------5-7-----5-5-----------------------|| 
G|-----7--5-7-----5-7---------------------------|| 
A|----------------------------------------------|| 
E|----------------------------------------------|| 

e|-----------------------8--10------------------|| 
B|-----------------------------10---------------|| 
D|-----5-7-7-7p5---5----------------------------|| 
G|-5-7-----------7------------------------------|| 
A|----------------------------------------------|| 
E|----------------------------------------------|| 

Laying motionless and bored 


e|----8-10-8-----------------------8-7--5-8-----|| 
B|-10--------10-8---------8--------8-8--5-8-----|| 
D|----------------9-9-7-9---7S5-----------------|| 
G|------------------------------7---------------|| x4 
A|----------------------------------------------|| 
E|----------------------------------------------|| 


e|-8-5------------------------------------------|| 
B|-----8-5--------------------------------------|| 
D|---------7-5----------------------------------|| 
G|-------------7-5------------------------------|| 
A|-----------------7-5--------------------------|| 
E|---------------------8-5----------------------|| 

e|----------------------------------------------|| 
B|----------------------------------------------|| 
D|---------------5-7-7b9r7-5--------------------|| 
G|-----------5-7--------------------------------|| 
A|-----5-6-7------------------------------------|| 
E|-5-8------------------------------------------|| 
verse 3 Same as previous verses: All my waiting was in vain I walked alone in pain Through the early morning rain Be the warmth to my embrace Pull me underneath your shadow Once before I get erased But my love is on the line I pushed it to the back I kept sliding out of time Now our moon is on the rise There is always something bigger Leaning on the other side, yeah
e|--------|-------------|-------------------|-----------------|-------------|| 
B|-8--5-6-|-6-5---------|-------------------|-----------------|-------------|| 
D|--------|-----5-----5-|-----7-7-7-5-7-7/9-|-----5---5h7-7-7-|-7-5---5~----|| 
G|--------|-------5-7---|-(5)---------------|-7-7---7---------|-----7-------|| 
A|--------|-------------|-------------------|-----------------|-------------|| 
E|--------|-------------|-------------------|-----------------|-------------|| 

e|--------------------------------------------------------------------------|| 
B|---------------8---8------------------------------------------------------|| 
D|-7-7-7-7-5-5/9---9--------------------------------------------------------|| 
G|--------------------------------------------------------------------------|| 
A|--------------------------------------------------------------------------|| 
E|--------------------------------------------------------------------------|| 

e|-------|------------------------------------------------------------------|| 
B|-8-5-6-|-6-5-8-5-6-6-5----------------------------------------------------|| 
D|-------|---------------5-----5-7-7-7-5---5--------------------------------|| 
G|-------|-----------------5-7-----------7----------------------------------|| 
A|-------|------------------------------------------------------------------|| 
E|-------|------------------------------------------------------------------|| 

e|-------------------------------8------------------------------------------|| 
B|---------8-8-8h10-8---8-8h10-8--------------------------------------------|| 
D|-7/9-9-9------------9-----------------------------------------------------|| 
G|--------------------------------------------------------------------------|| 
A|--------------------------------------------------------------------------|| 
E|--------------------------------------------------------------------------|| 

e|------8---------||------------8------8------------------------------------|| 
B|-8-10---10---8--||-------8-10---8-10--------------------------------------|| 
D|-----------9----|| x3-----------------------------------------------------|| 
G|----------------||--------------------------------------------------------|| 
A|----------------||--------------------------------------------------------|| 
E|----------------||--------------------------------------------------------|| 
share this page

See Also: