E-Chords
The Trews

In The Morning(Chords)

The Trews

roll up this ad to continue

Key: Eb
Capo on 3rd fret
Guitar riff #1 

e|----3p-0------------------|-----3p-0------------------|-...----------------| 
B|-1---------3p-1-------3-1-|-(1)--------3p-1-------3-1-|-...----------------| 
G|-----------------0h-2-----|------------------0h-2-----|-...----------------| 
D|---------2----3-------2---|----------2----3-------2---|-...----------------| 
A|-3----------------------3-|-(3)---------------------3-|-...----------------| 
E|--------------------------|---------------------------|-...----------------| 

Guitar riff #2 

e|----|-------0-------------0-------|-....-|---------0-|---------0-|-....----| 
B|-3--|-1h-3----1h-3--1h-3----1h-3--|-....-|-1--0--1---|-1--0--1---|-....----| 
G|----|-----------------------------|-.X6.-|-----------|-----------|-.X2.----| 
D|-0--|-0-------0-----0-------0-----|-....-|-----------|-----------|-....----| 
A|----|-----------------------------|-....-|-3---------|-3---------|-....----| 
E|----|-----------------------------|-....-|-----------|-----------|-....----| 
Eb Ab (verse 1) Eb Ab We have to keep believing Eb Ab It's gonna be ok Eb Ab Cause if we don't we're lost Eb Ab Maybe we're lost anyway Eb Ab I want to lift you up Eb Ab I want to make it great Eb Ab Eb Ab Fm I want to be the boat that carries you across the lake Bb You push everyone away Fm Bb But you don't want to be alone Cm Bb You still don't know what you want Ab But you have to let that go And trust that the sun will rise Eb Ab Eb Ab In the morning Eb Ab x 2 Eb Ab I want to get too close Eb Ab I want to be right there Eb Ab It might all mean nothing Eb Ab Fm But I think that we're getting somewhere Bb You push everyone away Fm Bb But you don't want to be alone Cm Bb You still don't know what you want Ab But you have to let that go And trust that the sun will rise Eb Ab Eb Ab In the morning Eb Ab Woo hoo hoo hoo x 4 Eb Db Ab Bb Eb Ab We have to keep believing Eb Ab It's gonna be ok Eb Ab Cause if we don't we're lost Eb Ab Fm Maybe we're lost anyway Bb At the end of the day Fm Bb you don't want to be alone Cm Bb You still don't know what you want Ab But you have to let that go And trust that the sun will rise Eb Ab Eb Ab In the morning Eb Ab Eb Ab In the morning Eb Ab Woo hoo hoo hoo x 4
share this page

See Also: