E-Chords
The Temper Trap

Fader(Chords)

The Temper Trap

roll up this ad to continue

Key: A
A      Bm 
I'm in transit 
	 G                Em 
floating stranded on this boat 
       A               Bm 
and I pledge myself allegiance 
     G                     D 
to a better night sleep at home 
        A                        Bm 
and the sweet sweet sun's comin down hard 
                 G 
the sun's comin down hard 
             Em 
it burns the bones 
   A 
so hold a hand for cover 
 Bm 
hold a hand for cover 
 G 
hold a hand for cover from harm 


A        Bm        G 
woooohoo wooooohoo woooohoo hoo 
                    A 
talk don't change a thing 

A        Bm        G 
woooohoo wooooohoo woooohoo hoo 
                A 
oh, it's fading fader 

{repeat for the next part} 

woo oo oo... 
words don't sink they swims 
oh, it's fading fader 


A          Bm 
bless this mess 
	     G 
we tried our best 
		       Em 
that's all that we can do 
          A 
while the angels walk 
         Bm 
with the lonely ones 
       G		   D 
in the cold rain to rescue you 
         A                    Bm 
and this fable world's comin down hard 
                  G 
the wall's comin down hard 
           Em 
on all our homes 
   A 
so hold a hand for cover 
Bm 
hold a hand for cover 
G 
hold a hand for cover from harm 


{repeat Chorus with same chords as before} 

Solo: Play twice with slight distortion 

   A 
e------------------------------------------| 
B--7----7----7----7----7----7----7----7----| 
G--9b11-9b11-9b11-9b11-9b11-9b11-9b11-9b11-| 
D------------------------------------------| 
A------------------------------------------| 
E------------------------------------------| 

   Bm 
e------------------------------------------| 
B--7----7----7----7----7----7----7----7----| 
G--9b10-9b10-9b10-9b10-9b10-9b10-9b10-9b10-| 
D------------------------------------------| 
A------------------------------------------| 
E------------------------------------------| 

          G 
e------------------------| 
B-------------------7----| 
G--9b10---7-------9-7----| 
D-------9---9~--9-----9~-| 
A------------------------| 
E------------------------| 
woo oo oo... talk don't change a thing oh, it's fading fader woo oo oo... words don't sink it swims oh, it's fading fader
share this page

See Also: