E-Chords
The Seres Of Mars

Aprisione Sua Maldade(Chords)

The Seres Of Mars

roll up this ad to continue

Key: Em
Intro 

   Em 
E|-------------------------------------------------------------| 
B|-------------------------------------------------------------| 
G|-------------------------------------------------------------| 
D|--9---9-----8------9-----10-----9-----8------9---------------| 
A|--7------7-----7------7------7-----7-----7-------------------| 
E|-------------------------------------------------------------|
     C                    B 
E|-------------------------------------------------------------| 
B|-------------------------------------------------------------| 
G|-------------------------------------------------------------| 
D|---5----5--4--5--------4----4--5--4--------------------------| 
A|---3-------------------2-------------------------------------| 
E|-------------------------------------------------------------|
E|-------------------------------------------------------------| 
B|--12--11--12--13--12---11--12----8--7--8----7--7--8--7--5----| 
G|-------------------------------------------------------------| 
D|-------------------------------------------------------------| 
A|-------------------------------------------------------------| 
E|-------------------------------------------------------------|
E|-------------------------------------------------------------| 
B|-------------------------------------------------------------| 
G|-------------------------------------------------------------| 
D|--9--9--9--9--9--9--9--9----9--9--9--9--9--9--9--9-----------| 
A|--7--7--7--7--7--7--7--7----7--7--7--7--7--7--7--7-----------| 
E|-------------------------------------------------------------|
E|-------------------------------------------------------------| 
B|-------------------------------------------------------------| 
G|-------------------------------------------------------------| 
D|--5--5--5--5--5--5--5--5----4--4--4--4--4--4--4--4-----------| 
A|--3--3--3--3--3--3--3--3----2--2--2--2--2--2--2--2-----------| 
E|-------------------------------------------------------------|
Em Mate a bruxa que te enfeitiçou C B Aprisionada e nunca pede perdão Em Loucuras que te fazem voltar C B Pare e prenda a respiração Em Não deixe os olhos te enganar C B Não pense no que já passou Em A prova viva está diante de você C B Os outros não sabem o que dizer Em C Eles Não sabem Em C B A vingança é o mal que se passa nesse instante Em C B Você tem o poder pense no que fazer adiante Oh...Ho Em C B A guerra é sua, A luta é nossa e a vida é a minha Em C B A guerra é sua, A luta é nossa e a vida é a minha Solo Em C B Em C B
E|--------------------------------14--15--------14--15--------| 
B|------------------/10--10/12------------12------------12----| 
G|------9---11---12-------------------------------------------| 
D|----9---9----9----------------------------------------------| 
A|------------------------------------------------------------| 
E|------------------------------------------------------------|
E|------------------------------------------------------------| 
B|--10--12------10------10-----10------10---------------------| 
G|----------12------11------9------7-------9------------------| 
D|------------------------------------------------------------| 
A|------------------------------------------------------------| 
E|------------------------------------------------------------|
E|---12----10----8--------------------------------------------| 
B|-------------------12---10---8------------------------------| 
G|-----------------------------------11---9---11--------------| 
D|------------------------------------------------------------| 
A|------------------------------------------------------------| 
E|------------------------------------------------------------|
Em Apague a luz e não feche os olhos C B Não tenha medo da escuridão Em Não procure o que é errado C B Acorrente sua vontade Em Um passo a frente abaixe e tente se esconder C B Mente confusa procure se encontrar Em C B Não questione a desigualdade aprisione sua maldade Em C Aprisione sua maldade,aprisione Em C B A vingança é o mal que se passa nesse instante Em C B Você tem o poder pense no que fazer adiante Oh Em C B A guerra é sua, A luta é nossa e a vida é a minha Em C B A guerra é sua, A luta é nossa e a vida é a minha Em The war is yors,The fight is ours C B My life pass before my eyes Em Civil war boody fight C B My life pass before my eyes Em My life pass before my eyes C B My life pass before my eyes Em Mate a bruxa condene o réu C B Faça a sua aposta não perca a sua fé
share this page

See Also: