E-Chords
The Outfield

Everytime You Cry(Chords)

The Outfield

Key: A
A                D/A 
E|-----------0--------------2-----| 
B|---------2---2----------3---3---| 
G|-------2--------------2---------|  (4x) 
D|--------------------------------| 
A|--------------------------------| 
E|--------------------------------| 

Verso 

        I'm  not   the one    to tell   you   what  clothes to wear 
E|-----0-------2---------0-------2---------0-------2---------0-------2----| 
B|---2---2---3---3-----2---2---3---3-----2---2---3---3-----2---2---3---3--| 
G|-2-------2---------2-------2---------2-------2---------2-------2--------| 
D|------------------------------------------------------------------------| 
A|------------------------------------------------------------------------| 
E|------------------------------------------------------------------------| 

        I'm   not    the one    who talks   about your  hair 
E|----------------------------------------------0-------2--------0-------2---| 
B|-----0---------3----------0---------3-------2---2---3---3----2---2---3---3-| 
G|---0---0-----0---0------0---0-----0---0---2-------2--------2-------2-------| 
D|---------------------------------------------------------------------------| 
A|---------------------------------------------------------------------------| 
E|-3--------3----------3---------3-------------------------------------------| 

        I'm      not     the one   to show   you     how I feel inside 
E|-----0-------2---------0-------2---------0-------2---------0-------2----| 
B|---2---2---3---3-----2---2---3---3-----2---2---3---3-----2---2---3---3--| 
G|-2-------2---------2-------2---------2-------2---------2-------2--------| 
D|------------------------------------------------------------------------| 
A|------------------------------------------------------------------------| 
E|------------------------------------------------------------------------| 
        
        I'm     not   the one to say how    much I   care 
E|----------------------------------------------0-------2--------0-------2---| 
B|-----0---------3----------0---------3-------2---2---3---3----2---2---3---3-| 
G|---0---0-----0---0------0---0-----0---0---2-------2--------2-------2-------| 
D|---------------------------------------------------------------------------| 
A|---------------------------------------------------------------------------| 
E|-3--------3----------3---------3-------------------------------------------| 
A E Everytime you cry G D I cry just a little bit, cry just a little bit A E G When you say goodbye, I die just a little bit D A Cry just a little bit more
Verso 

        I know it's late, I guess I should have called today 
E|-----0-------2---------0-------2---------0-------2---------0-------2----| 
B|---2---2---3---3-----2---2---3---3-----2---2---3---3-----2---2---3---3--| 
G|-2-------2---------2-------2---------2-------2---------2-------2--------| 
D|------------------------------------------------------------------------| 
A|------------------------------------------------------------------------| 
E|------------------------------------------------------------------------| 

        I know you're tired of waiting by the phone 
E|----------------------------------------------0-------2--------0-------2---| 
B|-----0---------3----------0---------3-------2---2---3---3----2---2---3---3-| 
G|---0---0-----0---0------0---0-----0---0---2-------2--------2-------2-------| 
D|---------------------------------------------------------------------------| 
A|---------------------------------------------------------------------------| 
E|-3--------3----------3---------3-------------------------------------------| 

        I know you said-you just don't know how long you'll wait 
E|-----0-------2---------0-------2---------0-------2---------0-------2----| 
B|---2---2---3---3-----2---2---3---3-----2---2---3---3-----2---2---3---3--| 
G|-2-------2---------2-------2---------2-------2---------2-------2--------| 
D|------------------------------------------------------------------------| 
A|------------------------------------------------------------------------| 
E|------------------------------------------------------------------------| 
        
        I know that you can live your life alone 
E|----------------------------------------------0-------2--------0-------2---| 
B|-----0---------3----------0---------3-------2---2---3---3----2---2---3---3-| 
G|---0---0-----0---0------0---0-----0---0---2-------2--------2-------2-------| 
D|---------------------------------------------------------------------------| 
A|---------------------------------------------------------------------------| 
E|-3--------3----------3---------3-------------------------------------------| 
A E Everytime you cry G D I cry just a little bit, cry just a little bit A E G When you say goodbye, I die just a little bit D E Cry just a little bit more
Ponte E D In a world where there's no one to turn to E D In a world where you think there's no one but you
Solo 
         
E|-----0-------2---------0-------2---------0-------2---------0-------2----| 
B|---2---2---3---3-----2---2---3---3-----2---2---3---3-----2---2---3---3--| 
G|-2-------2---------2-------2---------2-------2---------2-------2--------| 
D|------------------------------------------------------------------------| 
A|------------------------------------------------------------------------| 
E|------------------------------------------------------------------------| 
         
E|----------------------------------------------0-------2--------0-------2---| 
B|-----0---------3----------0---------3-------2---2---3---3----2---2---3---3-| 
G|---0---0-----0---0------0---0-----0---0---2-------2--------2-------2-------| 
D|---------------------------------------------------------------------------| 
A|---------------------------------------------------------------------------| 
E|-3--------3----------3---------3-------------------------------------------| 

    But everytime you need someone to dry your eyes 
E|-----0-------2---------0-------2---------0-------2---------0-------2----| 
B|---2---2---3---3-----2---2---3---3-----2---2---3---3-----2---2---3---3--| 
G|-2-------2---------2-------2---------2-------2---------2-------2--------| 
D|------------------------------------------------------------------------| 
A|------------------------------------------------------------------------| 
E|------------------------------------------------------------------------| 
    You call my name and know that I'll be there   
E|----------------------------------------------0-------2--------0-------2---| 
B|-----0---------3----------0---------3-------2---2---3---3----2---2---3---3-| 
G|---0---0-----0---0------0---0-----0---0---2-------2--------2-------2-------| 
D|---------------------------------------------------------------------------| 
A|---------------------------------------------------------------------------| 
E|-3--------3----------3---------3-------------------------------------------| 
Refrão A E Everytime you cry G D I cry just a little bit, cry just a little bit A E G When you say goodbye, I die just a little bit D A Cry just a little bit more A E Everytime you cry G D I cry just a little bit, cry just a little bit A E G When you say goodbye, I die just a little bit D A Cry just a little bit more

roll up this ad to continue

share this page

See Also: