E-Chords
The Otherside Band

Estudyante(Chords)

The Otherside Band

Key: C
Start with this for the intro (C G Am F (4x)): 

Y: 

e|---------------------------------------------| 
B|---------------------------------------------| 
G|---------------------------------------------| 
D|------5-3-2-------2-3--------5-3-2--------2-3| 
A|-3--3----------------------------------------| 
E|------------3---3------5---5--------1---1----| 

Z: 

e|---------------------------------------------| 
B|---------------------------------------------| 
G|---------------------------------------------| 
D|------5-3-2-------2-3--------5-3-2-----------| 
A|-3--3----------------------------------------| 
E|------------3---3------5---5--------1-----3--| 
(Repeat Y 2 times, chords are C G Am F) verse 1: C G (2x) then Am F (2x) C G Mama?g papa sige?g pangutana C G Kung kumusta na ang akong pagskwela Am F Ingon ko, ?ayos kaayo, ma Am F Kay naa na koy daghang barkada? (Repeat Y, (C G Am F)) Chorus: C G Am F C G Am F G (2x) C G Am F Estudyante ko... dako kay ko ug grado C G Am F G C Sa recess ug sa lunchbreak, wala gyud ko?y absent ma G Am F Ang barkada ko... magbawn ug Generoso C G Am F G Estudyante ko, apan wala?y ayo pagkatawo (Repeat Y 2 times, (C G Am F)) verse 2: C G (2x) then Am F (2x) C G Wa pay recess, magsige lang ug kaon C G Kung maudto sud-an sa canteen utangon Am F Inig hapon mag-una-una Am F Ug uli kay wa kunoy maestra (Repeat Y, (C G Am F)) (Repeat Chorus) Interlude: C G Am F (4x) Bridge: C G (2x) then Am F (2x) C G Mama?g papa, pwerting lagota C G Akong card kay daghan kaayo?g puwa Am F Busa karon ako stambay na Am F Sa iskina kay di na ka-eskwela (After the bridge, play C G Am F (2x) then C) (Repeat Chorus) Outro: C G Am F G (3x) then C C G Am F G C G (..tawo) Apan wala?y ayo pagkatawo Am F G C G Apan wala?y ayo pagkatawo Am F G C Apan wala?y ayo pagkatawo Enjoy :) -AlnelExtreme-

roll up this ad to continue

share this page

See Also: