E-Chords
The Lonely Biscuits

Casual Vibes(Chords)

The Lonely Biscuits

roll up this ad to continue

Key: C
Main Riff 
   Cadd13       E9          Cadd13       E9          Cadd13       E9          F#9         E9     
e|--------(5)---------------------(5)---------------------(5)--------------------------------------| 
B|---------5---x-x-7-7--7-7--------5---x-x-7-7--7-7--------5---x-x-7-7--7-7--/9--9--9-9--7--7-7-7--| 
G|---------5---x-x-7-7--7-7--------5---x-x-7-7--7-7--------5---x-x-7-7--7-7--/9--9--9-9--7--7-7-7--| 
D|---------5---x-x-6-6--6-6--------5---x-x-6-6--6-6--------5---x-x-6-6--6-6--/8--8--8-8--6--6-6-6--| 
A|------7------x-x-7-7--7-7-----7------x-x-7-7--7-7-----7------x-x-7-7--7-7--/9--9--9-9--7--7-7-7--| 
E|---8-----------------------8-----------------------8---------------------------------------------| 

Lead riff 
e|--------------------------8----8-----------| 
B|------8--------8s6---------------6---6br---| 
G|--5s8------5s8--------5s8---------------8--| 
D|-------------------------------------------| 
A|-------------------------------------------| 
E|-------------------------------------------| 
Cadd13 E9 Cadd13 E9 Casual vibes, that's my weakness Cadd13 E9 F#9 E9 Got me all shy and speechless Cadd13 E9 Cadd13 E9 So girl I gotta find, whats your weakness? Cadd13 E9 F#9 You gimme them eyes, let me teach this
(that's good, that's good) Verse Cadd13 E9 Ohh, she was something out of the usual Cadd13 Play it cool, Im nervous E9 Cause she's so smooth and casual Cadd13 Flowin' like the ocean E9 Always keepin' me in line F#9 Cause my heart is skippin' rhythm E9 While my mind is on time Cadd13 E9 See, baby girl I'm feelin oportunistic Cadd13 And you're hard to resist E9 With that bubblegum lipstick Cadd13 Hair growin long E9 And it's blonde from the summertime F#9 You got the style E9 So you know I gotta make you mine Cadd13 E9 I've been traveling the seven seas fishin' Cadd13 I've been wishin' for a girl like you E9 But keep missin' Cadd13 Give me your chance E9 And I promise that I'll make it count F#9 Never been in love E9 I wanna see what it's all about
Cadd13 E9 Cadd13 E9 Casual vibes, that's my weakness Cadd13 E9 F#9 E9 Got me all shy and speechless Cadd13 E9 Cadd13 E9 So girl I gotta find, whats your weakness? Cadd13 E9 F#9 You gimme them eyes, let me teach this
Verse Cadd13 She's into jocks, nerds, E9 Drama kids and skaters Cadd13 If you're looking for some gravy E9 Then you know I'll see you later Cadd13 Cause I wrote my telephone number E9 On the back of your hand F#9 In hopes that one day you'll call E9 But if you don't, I understand Cadd13 Cause I'm just a hippe E9 Spittin' verses in Hawaiian shirts Cadd13 And Sunday morning jammin music E9 with the birds chirpin' Cadd13 It's a laid back life E9 But we can live it up F#9 And if you wanna spend some time E9 Just let me know what's up Cadd13 And when you start to fall off E9 I'll keep tryin' Cadd13 Cause I never has a girl as pretty E9 On the other line, but Cadd13 E9 I still show love for every lady like I should F#9 Cause I aint got no preference, man E9 They all lookin' good I like em Bridge Cadd13 Tall E9 Short Cadd13 Blonde E9 And pretty Cadd13 Pale E9 Tan F#9 Fat E9 And skinny (Repeat x3)
Cadd13 E9 Cadd13 E9 Casual vibes, that's my weakness Cadd13 E9 F#9 E9 Got me all shy and speechless Cadd13 E9 Cadd13 E9 So girl I gotta find, whats your weakness? Cadd13 E9 F#9 You gimme them eyes, let me teach this
share this page

See Also: