E-Chords
The Kooks

Sofa song(Chords)

The Kooks

Key: G#7sus4
Intro: G#7sus4 E x3 | C#m F# 
        
G#m      B 
The city freeze for 
E               B       D#m 
I just realised I don't like you 
G#m    B 
Me and my girl 
E         B            D#m 
Are going out for some air 
G#m        B 
And I will do my best 
E           B         D#m 
Just to get under her dress 
G#m           B 
And catch you out if I can 
E            B          D#m 
On the other side of my sofa 

G#m B                  F# 
    Won't you come on over 
C#                 
    At the side of my sofa 
G#m B                    F#   C# 
    Oh won't you come on over 

Solo: 
E||--------------------------|-----------------------------| 
B||--------------------------|-----------------------------| 
G||--8----11--8--11--13------|--14b---------L--13--11--13--| 
D||--------------------------|-----------------------------| 
A||--------------------------|-----------------------------| 
E||--------------------------|-----------------------------| 

                       |---3--------| 
------------------------------------| 
------------------------------------| 
--13----13----13--11--14--13--11----| 
------------------------------------| 
------------------------------------| 
------------------------------------| 

   |---3---|   |---3---|   |---3---|   |---3--------| 
----------------------------------------------------| 
----------------------------------------------------| 
--13--11------11------------------------------------| 
----------13------13--11--13--11------11------------| 
----------------------------------14------14--11----| 
----------------------------------------------------| 

----------------------------| 
----------------17--16--14--| 
----------------------------| 
----------------------------| 
--14b-----------------------| 
----------------------------| 

----------------------------------|---------------------------| 
----------------------------------|--------------14----L--14--| 
--16--15--13--15--15--(16)--16----|----------16---------------| 
----------------------------------|---------------------------| 
----------------------------------|---------------------------| 
----------------------------------|---------------------------| 

-------------------------|| 
--16-------17--16--------|| 
-------------------------|| 
-------------------------|| 
-------------------------|| 
-------------------------||

roll up this ad to continue

share this page

See Also: