E-Chords
The Kooks

See The Sun(Chords)

The Kooks

Key: A#m
Oh you can have it all and wrap it in the world 
	     A#m	 C# 
You can have everything 
	     F# 	      D#m 
You can have love and lots of other things 
   C# 
To make you think 
	    B		      C# 
But when it all comes down to you girl 
	D#m    C#	B 
Yeah no matter what you do 
	B		    C# 
Take a look at yourself and realize 
	  D#m 
I?ve been good to you 
C#	  B 
I?ve been good to you 


F# D#m A#m C# F# x3 

   D#m A#m	     C#		      F# 
Oh no!      I didn't mean to say what I 
    D#m A#m	      C#	     F# 
did say     All about lovers and how they 
       D#m A#m		C#		F# 
should lay     That was never for me to 
	D#m A#m	   C#		    B 
say and say 	Don't you see now how I pay 
	        C# 
I see the sun rising 
		       D#m   C#	   F# 
And all you see is its fall, fall, fall 


D#m A#m C# F# x2 

	   D#m A#m	     C#		             F# 
So come on up,     Wasn?t it you who said life was like a 
	D#m A#m       C#	    F# 
plastic cup     to be used and then dis- 
      D#m A#m			C#		  F# 
posed off     Yeah but thats no way to live a l-l-life 
     D#m A#m	       C#	     B 
like yours   Don?t you see now how i pay 
		C# 
I see the sun rising 
		       D#m   C#    B 
And all you see is its fall, fall, fall 


B C# A#m 

	    B		  C#		F#   C# D#m 
For all the times i never never turned away 
	      B		      C#	   A#m 
And now she's here on someone else?s arms 

	    B		  C#		F#   C# D#m 
For all the times i never never turned away 
	      B		      C# 
And now she's here on someone else?s arms 

----------------------------------------------------| 
-2/11-11-11-9---------------------------------------| 
--------------11-10------10--10-11-10----11---------| 
----------------------11--------------11----11-8-11-| 
----------------------------------------------------| 
----------------------------------------------------| 


------------------------------------------9-9b11r9----9-| 
----------------------------9-9b11r9-7-11----------11---| 
---6-8--6---8-6-6-8-6/11-11-----------------------------| 
-8--------8---------------------------------------------| 
--------------------------------------------------------| 
--------------------------------------------------------| 


---------------------9-7-9-8-9-9b11r9/11--6-| 
----------------2/11----------------------6-| 
-3/6-8-6---6-8----------------------------6-| 
---------8--------------------------------8-| 
------------------------------------------8-| 
------------------------------------------6-|
B C# F# C# D#m For all the times i never never turned away B C# A#m And now she's here on someone else?s arms B C# F# C# D#m For all the times i never never turned away B C# And now she's here on someone else?s arms F# D#m A#m C# F# D#m A#m C# F#

roll up this ad to continue

share this page

See Also: