E-Chords
The Kooks

Put Your Back To My Face(Chords)

The Kooks

Key: A
E-------------------5-4-----------------5-7----| 
B----2-2-2-2-2-2-------2-2-2-2-2-2-------------| 
G----------------------------------------------| 
D----------------------------------------------| 
A----------------------------------------------| 
E----------------------------------------------| 

E---------------------------------2----0-------| 
B---3-3-3-3-2-3-3-3-2-0-0-0-----3---2-0--------| 
G----------------------------------------------| 
D----------------------------------------------| 
A----------------------------------------------| 
E----------------------------------------------|
A Put your back to my face E No love to give but I want to A And get on my high horse babe E Let me pawn your heart A Doesn't have to be a real thing I'd settle just for a touch of your skin Bm F#m Baby blue let me please touch you Bm Another person, another wave F#m Another point of view, babe Bm Am I too good for you E Oh now you're baby blue
E-------------------5-4-----------------5-7----| 
B----2-2-2-2-2-2-------2-2-2-2-2-2-------------| 
G----------------------------------------------| 
D----------------------------------------------| 
A----------------------------------------------| 
E----------------------------------------------| 

E---------------------------------2----0-------| 
B---3-3-3-3-2-3-3-3-2-0-0-0-----3---2-0--------| 
G----------------------------------------------| 
D----------------------------------------------| 
A----------------------------------------------| 
E----------------------------------------------|
A Put your back to my face E No love to give but I want to

roll up this ad to continue

share this page

See Also: