E-Chords
The Kooks

Gap(Chords)

The Kooks

Key: Gm
Recommended Chords: D  D#  cleaner, and a lot easier to get to the D# 

INTRO: 
e|---X---/10--10--10h13p10-------8----8--8-----------------------------------| 
B|---X---/11------11--------11---8----8--8-------10---------10--10--10-------| 
G|---X---/10----------------10---8----8--8-------11---------11--11--11-------| 
D|---X---/12---------------------8----8--8-------12---------12--12--12-------| 
A|---X---/10---------------------10---10-10------12---------12--12--12-------| 
E|-------------------------------8----8--8-------10----10---10--10--10-------| 

e|---------------------------------------------------------------------------| 
B|---11--11--11-------------10--10--10---------------------------------------| 
G|---12--12--12-------------10--10--10---------------------------------------| 
D|---13--13--13-------------10--10--10---------------------------------------| 
A|---13--13--13-------------8---8---8----------------------------------------| 
E|---11--11--11--------------------------------------------------------------|
VERSE1: Gm Cm7 So put a spanner in the works, D D# F of your mind Gm Cm7 It's easier to work, D D# F But I don't mind, Gm Cm7 You're better in defeat so, D D# F Just don't try Gm Cm7 To take away all the things D D# D# So dear in my life. Chorus: G# D# I have to break down all Bb Cm7 Bb* the corners of the world. G# D# Don't heap this praise on me, Bb Cm7 Bb* I know I don't deserve it. G# D# But what's all of this I see? Bb Cm7 Bb* Yeah you're leaving right beside me, G# D# And I miss you, and I need you. Bb Bb I do. BRIDGE: G# Cm7 Bb But don't go, take my love, Cm Bb* I won't let you, I'm saying please don't go. G# Cm7 Bb Don't go, take my love, Cm Bb * I won't let you, I'm saying please don't go. (G# Cm7 Bb) VERSE2: Gm Cm7 Well leave your lover now, D D# F it's your turn. Gm Cm7 And see your mother now, D D# F I hope she's okay. Gm Cm7 You're better in defeat so, D D# F let's not try Gm Cm7 To take away all the things D D# D# so dear in our lives. Chorus BRIDGE BRIDGE2: G# Gm All of my life, Bb trying to understand. G# Gm All of my life, Bb trying to hold a hand. Chorus ...That's true.

roll up this ad to continue

share this page

See Also: