E-Chords
The Go Go's

We Got The Beat(Chords)

The Go Go's

roll up this ad to continue

Key: A
Main Riff: 
   A 
G------------------------    (Only bass plays it for the first part of the song  
D--------5--7--5---------    then the lead guitar joins in right after the solo) 
A--0--7-----------7--0---       
E------------------------
A See the people walking down the street Fall in line just watching all their feet They don't know where they want to go But they're walking in time D G They got the beat, they got the beat F C A They got the beat, yeah they got the beat A All the kids just getting out of school They can't wait to hang out and be cool Hang around 'til quarter after twelve That's when they fall in line D G They got the beat, they got the beat F C A They got the beat, yeah they got the beat
 Solo:       
                        
e------------------------------------------------------------- 
B------------------------------------------------------------- 
G--------------5-5-7-7-5-5--------------------5-5-7-7-5-5----- 
D------5-5-7-7-------------7-7--------5-5-7-7-------------7-7- 
A--7-7----------------------------7-7------------------------- 
E------------------------------------------------------------- 

e------------------------------------------------------------- 
B------------------------------------------------------------- 
G--------------7-7-9-9-7-7--------------------7-7-9-9-7-7----- 
D------7-7-9-9-------------9-9--------7-7-9-9-------------9-9- 
A--9-9----------------------------9-9------------------------- 
E-------------------------------------------------------------
A Go-go music really makes us dance Do the pony puts us in a trance do the watusi just give us a chance That's when they fall in line D G They got the beat, they got the beat F C A They got the beat, yeah we got it
share this page

See Also: