E-Chords
The Ghost

Ritual(Chords)

The Ghost

roll up this ad to continue

Key: Bb
Intro: 
  GTR I 
e|----------------------------------------------| 
B|-11-x-11-13--10--10-10--11-x-11-13--10--10-10-| 
G|-10-x-10-10--10--10-10--10-x-10-10--10--10-10-| 
D|-12-x-12-12--12--12-12--12-x-12-12--12--12-12-| 
A|----------------------------------------------| 
E|----------------------------------------------| 

e|----------------------------------------------| 
B|-8---8--8---8--8-8--11-x-11-13--10-10--10-10--| 
G|-9---9--9---7--7-7--10-x-10-10--10-9---9--9---| 
D|-10--10-10--9--9-9--12-x-12-12--12-11--11-11--| 
A|----------------------------------------------| 
E|----------------------------------------------| 

  GTR I 
e|------------------------------------------------------------| 
B|-11-x-11-13--10--10-10--11-x-11-13--10--10-10--8---8--8---6-| 
G|-10-x-10-10--10--10-10--10-x-10-10--10--10-10--9---9--9---7-| 
D|-12-x-12-12--12--12-12--12-x-12-12--12--12-12--10--10-10--8-| 
A|------------------------------------------------------------| 
E|------------------------------------------------------------| 

  GTR II 
e|----------------------------------------------------| 
B|-------13h15-------------13h15-------------13h15----| 
G|-12\14-------14----12\14-------14----12\14-------14-| 
D|----------------------------------------------------| 
A|----------------------------------------------------| 
E|----------------------------------------------------| 

Verse: 

         P.M. --------------| 
e|-----------------------------------------| 
B|-----------------------------------------| 
G|-----------------------------------------| 
D|-----------------------------------------| 
A|-3p2-2--2-2-2-2-2-2-2-2-2-2--------------| 
E|-1p0-0--0-0-0-0-0-0-0-0-0-0--5-6-7-0-3-6-| 

         P.M. --------------| 
e|-----------------------------------------| 
B|-----------------------------------------| 
G|-----------------------------------------| 
D|-----------------------------------------| 
A|-3p2-2--2-2-2-2-2-2-2-2-2-2--------------| 
E|-1p0-0--0-0-0-0-0-0-0-0-0-0---8--8-8~----| 

         P.M. --------------| 
e|-----------------------------------------| 
B|-----------------------------------------| 
G|-----------------------------------------| 
D|-----------------------------------------| 
A|-3p2-2--2-2-2-2-2-2-2-2-2-2--------------| 
E|-1p0-0--0-0-0-0-0-0-0-0-0-0--5-6-7-0-3-6-| 

         P.M. --------------| 
e|-----------------------------------------| 
B|-----------------------------------------| 
G|-----------------------------------------| 
D|-----------------------------------------| 
A|-3p2-2--2-2-2-2-2-2-2-2-2-2--------------| 
E|-1p0-0--0-0-0-0-0-0-0-0-0-0---6--6-6~----| 

         P.M. --------------| 
e|-----------------------------------------| 
B|-----------------------------------------| 
G|-----------------------------------------| 
D|-----------------------------------------| 
A|-3p2-2--2-2-2-2-2-2-2-2-2-2--------------| 
E|-1p0-0--0-0-0-0-0-0-0-0-0-0--5-6-7-0-3-6-| 
          Tonight we're... 

         P.M. --------------| 
e|-----------------------------------------| 
B|-----------------------------------------| 
G|-----------------------------------------| 
D|-----------------------------------------| 
A|-3p2-2--2-2-2-2-2-2-2-2-2-2--------------| 
E|-1p0-0--0-0-0-0-0-0-0-0-0-0---8--8-8~----| 

         P.M. --------------| 
e|-----------------------------------------| 
B|-----------------------------------------| 
G|-----------------------------------------| 
D|-----------------------------------------| 
A|-3p2-2--2-2-2-2-2-2-2-2-2-2--------------| 
E|-1p0-0--0-0-0-0-0-0-0-0-0-0--5-6-7-0-3-6-| 

         P.M. --------------| 
e|-----------------------------------------| 
B|-----------------------------------------| 
G|-----------------------------------------| 
D|-----------------------------------------| 
A|-3p2-2--2-2-2-2-2-2-2-2-2-2--------------| 
E|-1p0-0--0-0-0-0-0-0-0-0-0-0---10--10-10~-| 
Bb C Dm This chapel of ritual Bb C Dm C Smells of dead human sacrifices Bb From the altar...
Verse
Bb C Dm This chapel of ritual Bb C Dm C Smells of dead human sacrifices G Dm From the altar bed Bb C Dm On this night of ritual Bb C Dm C Invocing our master G Dm To procreate the unholy bastard
e|-------------------------------------------------| 
B|-------------------------------------------------| 
G|-------------------------------------------------| 
D|-------------------------------------------------|  
A|---5-5-5-5-5---5-5-5-5-5---5-5-5-5-5---5-5-5-5-5-| x2 
E|-4-----------4-----------4-----------4-----------| 

e|-------------------------------------------------| 
B|-------------------------------------------------| 
G|-------------------------------------------------| 
D|-------------------------------------------------| 
A|-------------------------------------------------| x4 
E|-2-2-2-2-2-4-5-5-5-5-5-7-8-8-8-8-8-7-5-5-5-5-3---| 
   Our father...  who art in hell... 

e|-------------------------------------------------| 
B|-------------------------------------------------| 
G|-------------------------------------------------| 
D|-------------------------------------------------|  
A|-----------2-----------2-----------2-----------2-| x2 
E|-1-1-1-1-1---1-1-1-1-1---1-1-1-1-1---1-1-1-1-1---| 

                                                        1/4  
e|-----------------------------------------------------------------------------------| 
B|------------------17~-17~-15----15-17~-15-17~-20~-19~-12b--(12)-15-13-12~----11b12-| 
G|-----------------------------16----------------------------------------------------| 
D|--------------------------------------------------------------------------14-------| 
A|-12-13-14-------13-----------------------------------------------------------------| 
E|----------12-15--------------------------------------------------------------------| 
Verse Tonight we summoned for His unholy fiend Now celebrate The End
Bb C Dm This chapel of ritual Bb C Dm C Smells of dead human sacrifices G Dm From the altar bed Bb C Dm On this night of ritual Bb C Dm C Invocing our master G Dm To procreate the unholy bastard
Outro and end of long solo:
 
e|--------------------------------------------------| 
B|-3-5-6-13-10---3-5-6-8-5---8-6-5-1-3---3-5-6-8-10-| 
G|--------------------------------------------------| 
D|--------------------------------------------------| 
A|--------------------------------------------------| 
E|--------------------------------------------------|
share this page

See Also: