E-Chords
The Flatliners

Ashes Away(Chords)

The Flatliners

roll up this ad to continue

Key: E
Intro E G#m A  (2x)


E 
    Wait! Won't you stop running? I've been smoking all too much 

E       G#m             A 
   Taste the blood pool in my mouth as I try to catch up 

E         G#m             A 
     Fade; my head floats wildly as everything starts to rust 

E       G#m           A                          F#    A       F#m      
    Take a breath and choke upon this wandering wander-lust 

A                    E 
    Woah-oh oh oh oh ooooooo 


G#m A Gm# A The can collectors seem to know us better when we're F#m E C#m Singing about those days G#m A G#m A And I can't remember where I found your letters but they're F#m A B Drifting as ashes away oh woah oh oh oh oh oh oh
E G#m A (2x) verse 2 E G#m A Grace, push every ounce of your air into my dead lungs E G#m A Tear me from the hell to which I could never succumb E G#m A Wail with all your might on my bones to sober me up E G#m A F#m A F#m A G#m F#m E Stare directly in to that burning Ossington sun E C#m Pull out my heart just for
G#m A G#m A The can collectors seem to know us better when we're F#m E C#m Singing about those days G#m A G#m A And I can't remember where I found your letters but they're F#m E B A Drifting as ashes away, away
This part's kind of tricky and random. and for that, I'll put into tab-form. 

e|-x---x---x---------x---x-x--x------x---x---x--------0---| 
B|-x---x---x---------x---x-x--x------x---x---x--------0---| 
G|-6---4---9---------6---4-13-14-----6---4---9--------1---| 
D|-6---4---9---------6---4-13-14-----6---4---9--------2---| 
A|-4---2---7---------4---2-11-12-----4---2---7--------2---| 
E|-x---x---x---------x---x-x--x------x---x---x--------0---| 

e|-x----x---x---------x----x----x---x-------x---x---x---x---| 
B|-x----x---x---------x----x----x---x-------x---x---x---x---| 
G|-11---9---13--------11---13---8---9-------9---8---13--14--| 
D|-11---9---13--------11---13---8---9-------9---8---13--14--| 
A|-9----7---11--------9----11---6---7-------7---6---11--12--| 
E|-x----x---x---------x----x----x---x-------x---x---x---x---| 
G#m A G#m A The can collectors seem to know us better when we're F#m E C#m Singing about those days G#m A G#m A And I can't remember where I found your letters but they're F#m E B Drifting as ashes away B oh woah oh oh. A Woah oh oh oh oh oh. YEAH! E G#m A until the end.
share this page

See Also: