E-Chords
The Delgados

Girls Of Valour(Chords)

The Delgados

roll up this ad to continue

Key: D
D                    G 
Daybreak comes late, batters down your soul 
D                    G 
These days you crave nothing that you own 
F#m                 C 
You don't feel like moving from your room 
Em                                 A 
And all your friends are still too cool 
D                  G 
Come on, fight on, now is not the end 
D                  G 
These days we must act but not pretend 
F#m              C 
I can't turn all your land into gold 
Em                              A 
All your friends will then seem old 

D G If you change your mind you will find everything inside our worlds collide D F C If you change your mind you will find everything inside your world collides D G Rouse up now, you girls of valour, let's go out and fight forever D F C Rouse up now, you girl of valour, let's go out and fight forever
D G Come on, what you must do is believe D G These days you'll find friends you get for free F#m C Daybreak comes late, send it all your way Em A And all the roads go on and on
D G If you change your mind you will find everything inside our worlds collide D F C If you change your mind you will find everything inside your world collides D G Rouse up now, you girls of valour, let's go out and fight forever D F C A Rouse up now, you girl of valour, let's go out and fight forever
Instrumental
   D                            G  
e|------------------------------3-3-----3-----3-----3-----3-----| 
b|-3/5/7-7\3--3/5/7-7\3--3/5/7------5-3---5-3---5-3---5-3---5-3-| 
g|--------------------------------------------------------------| 
d|--------------------------------------------------------------| 
a|--------------------------------------------------------------| 
e|--------------------------------------------------------------| 

   D                            G  
e|------------------------------3-3-5-5-3-5---3-5---3-5---3-5---| 
b|-3/5/7-7\3--3/5/7-7\3--3/5/7--------------3-----3-----3-------| 
g|--------------------------------------------------------------| 
d|--------------------------------------------------------------| 
a|--------------------------------------------------------------| 
e|--------------------------------------------------------------| 

   Em                             A  
e|----------------------------------------------------------| 
b|-3/5--5-5-5--5-5--5-5-5/7-7-3-3---------------------------| 
g|----------------------------7-7-6--6\2--2-2--2-2-0-2-0--0-| 
d|----------------------------------------------------------| 
a|----------------------------------------------------------| 
e|----------------------------------------------------------| 

   Em                          A  
e|----------------------------------------------------------| 
b|-2/4-4-4/6-6-6/7-7-6-7-6-7-6-6--6-6/7-7-7/9-9-9/11-11-11--| 
g|----------------------------------------------------------| 
d|----------------------------------------------------------| 
a|----------------------------------------------------------| 
e|----------------------------------------------------------| 
D G If you change your mind you will find everything inside our worlds collide D F C If you change your mind you will find everything inside your world collides D G Rouse up now, you girls of valour, let's go out and fight forever D F C A D Rouse up now, you girl of valour, let's go out and fight forever
share this page

See Also: