E-Chords
The Currys

Come On Home(Chords)

The Currys

Key: C#m
Verse: C#m-A-E-B 
Pre-Chorus F#m-C#m-E-B 
Chorus: A-E-B 
Bridge: G#m-C#m-F#m-B-F#m-C#m 


First Verse: 
C#m                     A                     E                    B 
Come on home now 'cause I spent some time away crawling on the ground 
C#m                     A                         E                 B 
Come on home now 'cause I'll be pulling my own weight this time around 

F#m                       C#m 
If you don't think you want me anymore 
           E            B 
Can't you try one more time? 

A E B I've been learning that running 'round ain't always wasting time A E B I've been learning to seek without caring what I find A E B I've been dying to talk with you, would that be all right?
Second Verse: C#m A E B Come on home now 'cause I feel a little foolish singing by myself C#m A E B Come on home now and tell me, is there anything you see in anybody else? F#m C#m If you don't think you love me anymore E B Can't you try one last time?
A E B I've been learning that running 'round ain't always wasting time A E B I've been learning to seek without caring what I find A E B I've been dying to talk with you, would that be all right?
Bridge/Solo rhythm guitar: G#m-C#m-F#m-B-F#m-C#m
Solo lead guitar: 
   G#m                 C#m                  F#m                                 B    
e|--------14-11--14/16|14--12--------------|-----------------------------------|------------------| 
B|-----12-12----------|14----14p12h14------|-----------------------------------|-------------12---| 
G|---11---11----------|13------------------|------------9---9-11b12b11p9---9-9/|8-------11/13-----| 
D|-13-----------------|--------------------|--------9-11--11------------11-----|---11-9-----------| 
A|--------------------|--------------------|---9h11----------------------------|------------------| 
E|--------------------|-----------------11h|12---------------------------------|------------------| 

   F#m                             C#m 
e|--12p11p9--9--------------------|------------------| 
B|---------12-12-9h10p9---9-------|10/12-12--9-------| 
G|----------------------11-11-9h11|11/13-11--9h11----| 
D|--------------------------------|--------------11--| 
A|--------------------------------|------------------| 
E|--------------------------------|------------------| 
Chorus repeated to the end

roll up this ad to continue

share this page

See Also: