E-Chords
The Color Green

Girl(Chords)

The Color Green

Key: G6
 
INTRODUÇÃO 
 
e|------------------------------------| 
B|-------3-------------3--------3-----| 
G|---2/4-----------2h4---4-2--0---0---| 
D|------------------------------------|  |X2| 
A|----------------------------3-------| 
E|------------------------------------|
|G6 Cadd9 X2 G6 Cadd9 Don't you open your eyes, G6 Cadd9 And I won't open up mine, G6 Cadd9 Hey I know I ain't much, G6 Cadd9 But I'm not looking for love, C I'm not looking for love...
Cadd9 G And I will release you from all of your torment, Am7 C Stir up trouble that you can't ignore Cadd9 G And I'll tell the world, I'll tell them a story, Am7 C I'll tell a story to the world about a girl...
|G6 Cadd9 X2 G6 Cadd9 Ok open your eyes, G6 Cadd9 And I will open up mine. G6 Cadd9 Hey I know ain't much, yeah, G6 Cadd9 But I know you're looking for love, C You're looking for love...
Cadd9 G And I will release you from all of your torment, Am7 C Stir up trouble that you can't ignore Cadd9 G And I'll tell the world, I'll tell them a story, Am7 C I'll tell a story to the world about a girl...
G6 Cadd9 G6 She walked away Cadd9 She walked away G6 She just walked away Cadd9 She walked away
Cadd9 G And I will release you from all of your torment, Am7 C Stir up trouble that you can't ignore Cadd9 G And I'll tell the world, I'll tell them a story, Am7 C I'll tell a story to the world about a girl...
G6 Cadd9 About a girl G6 About a girl Cadd9 About a girl G6 About a girl ---------------------------
ACORDES 
 
  Cadd9  G6  Am7    
e|--3----x----3--| 
B|--3----3----1--| 
G|--0----0----0--| 
D|--2----0----2--| 
A|--3----2----0--| 
E|-------3-------| 
 
 
Escutando a música pega-se o dedilhado melhor, mas é algo assim: 
 
G6 (quando acompanhado de voz há algumas batidas na 'e solta') 
 
e|-----------------------------------------------| 
B|---3-------3--3-------3--3-------3--3-------3--| 
G|-----0---0------0---0------0---0------0---0----| 
D|-------0----------0----------0----------0------| 
A|-----------------------------------------------| 
E|---3----------3----------3----------3----------| 
 
 
Cadd9 
                                                 
e|-----------------------------------------------| 
B|---3-------3--3-------3--3-------3--3-------3--| 
G|-----0---0------0---0------0---0------0---0----| 
D|-------2----------2----------2----------2------| 
A|---3----------3----------3----------3----------| 
E|-----------------------------------------------|
_______________________________________________________ Contribuição: Igor da Silva Delucis([email protected])

roll up this ad to continue

share this page

See Also: