E-Chords
The Bennies

Frankston Girls(Chords)

The Bennies

Key: G

Chorus 
e|------------------------| 
B|------------------------| 
G|-------7-7-7-------6----| 
D|-5-9-5-7-7-7-5-9-5-6----| 
A|-5-9-5-5-5-5-5-9-5-4----| 
E|-3-7-3-------3-7-3------| x4 
G5 A5 Bb5 C5 G5 Everybody's looking to head out tonight A5 Everybody's looking for a good time Bb5 This one goes out to the Frankston girls C5 That gave you a necklace made of pearls
Chorus 
e|------------------------| 
B|------------------------| 
G|-------7-7-7-------6----| 
D|-5-9-5-7-7-7-5-9-5-6----| 
A|-5-9-5-5-5-5-5-9-5-4----| 
E|-3-7-3-------3-7-3------| x4 
G5 A5 Bb5 C5 Gm Car smells of perfume and that's pretty gross Am We like to show skin *something* the most Bb I can see you dressed down, daddy's little girl C He gave you a necklace made of pearls
Chorus 
e|------------------------| 
B|------------------------| 
G|-------7-7-7-------6----| 
D|-5-9-5-7-7-7-5-9-5-6----| 
A|-5-9-5-5-5-5-5-9-5-4----| 
E|-3-7-3-------3-7-3------| x4 

G5 A5 Bb5 C5 

Chorus 
e|------------------------| 
B|------------------------| 
G|-------7-7-7-------6----| 
D|-5-9-5-7-7-7-5-9-5-6----| 
A|-5-9-5-5-5-5-5-9-5-4----| 
E|-3-7-3-------3-7-3------| x8

roll up this ad to continue

share this page

See Also: