E-Chords
The Beatles

Lucy In The Sky With Diamonds(Chords)

The Beatles

Watch the video lesson
Key: A
Intro 

E|---------12------12--------------12------10p9-------| 
B|-----10--------------10------10-----------------10--| 
G|--9----------12----------11----------10-------------| 
D|----------------------------------------------------| 
A|----------------------------------------------------| 
E|----------------------------------------------------| 

Verse 1:

A A7/G F#m7 F Picture yourself in a boat on a river A A7/G F#m7 F With tangerine trees and marmalade skies A A7/G F#m7 F Somebody calls you, you answer quite slowly A A7/G F#m7 Dm A girl with kaleidoscope eyes

Bridge:

Bb C Celophane flowers of yellow and green F Bb Towering over your head C G Look for the girl with the sun in her eyes D And she's gone
G C D Lucy in the sky with diamonds G C D Lucy in the sky with diamonds G C D Lucy in the sky with diamonds D Ahh

Verse 2:

A A7/G F#m7 F Follow her down to a bridge by a fountain A A7/G F#m7 F Where rocking horse people eat marshmallow pies A A7/G F#m7 F Everyone smiles as you drift past the flowers A A7/G F#m7 Dm That grow so incredibly high

Bridge:

Bb C Newspaper taxis appear on the shore F Bb Waiting to take you away C G Climb in the back with your head in the clouds D And you're gone
G C D Lucy in the sky with diamonds G C D Lucy in the sky with diamonds G C D Lucy in the sky with diamonds D Ahh

Verse 3:

A A7/G F#m7 F Picture yourself on a train in a station A A7/G F#m7 F With plasticine porters with looking glass ties A A7/G F#m7 F Suddenly, someone is there at the turnstile A A7/G F#m7 Dm The girl with kaleidoscope eyes
G C D Lucy in the sky with diamonds G C D Lucy in the sky with diamonds G C D Lucy in the sky with diamonds D A Ahh... G C D Lucy in the sky with diamonds G C D Lucy in the sky with diamonds G C D Lucy in the sky with diamonds D A Ahh... G C D Lucy in the sky with diamonds G C D Lucy in the sky with diamonds G C D Lucy in the sky with diamonds
1 
    A          A7/G        F#m7        F 
E|---------12------12--------------12------10p9-------| 
B|-----10--------------10------10-----------------10--| 
G|--9----------12----------11----------10-------------| 
D|----------------------------------------------------| 
A|--0----------10----------9-----------8--------------| 
E|----------------------------------------------------| 

2 
    A          A7/G        F#m7        F 
E|---------12------12--------------12--8--12-8--------| 
B|-----10--------------10------10------10-10-10-10----| 
G|--9----------12----------11----------10-10-10----10-| 
D|----------------------------------------------------| 
A|--0----------10----------9-----------8--------8-----| 
E|----------------------------------------------------| 

3 
    A          A7/G        F#m7        F 
E|---------12------12--------------12------10p9-------| 
B|-----10--------------10------10-----------------10--| 
G|--9----------12----------11----------10-------------| 
D|----------------------------------------------------| 
A|--0----------10----------9-----------8--------------| 
E|----------------------------------------------------| 

4 
    A          A7/G       F#m7 
E|--------12------12------9--12--9--12--9--12---------| 
B|----10--------------10--10-10--10-10--10-10---------| 
G|-9----------12--------------------------------------| 
D|----------------------------------------------------| 
A|-0----------10----------9---------9-----------------| 
E|----------------------------------------------------| 

5 
   Dm 
E|-10-13--10-13--10-13--------------------------------| 
B|-10-10--10-10--10-10--------------------------------| 
G|----------------------------------------------------| 
D|----------------------------------------------------| 
A|----------------------------------------------------| 
E|-10--------10---------------------------------------| 

Chorus 

1 
   G        C            D 
E|-3-3-3-3--3---3-3---2---3-2--2-2--2-2--2--| 
B|-3-3-3-3--3---3-3---3---3-3--3-3--3-3--3--| 
G|-0-0-0-0--0---0-0---2---2-2--2-2--2-2--2--| 
D|-0-0-0-0--2---0-2---0---0-0--0-0--0-0--0--| 
A|-2-2-0-2--3-------------------------------| 
E|-3-3--------------------------------------| 

   G        C            D 
E|-3-3-3-3--3---3-3---2---3-2--2-2--2-2--2--| 
B|-3-3-3-3--3---3-3---3---3-3--3-3--3-3--3--| 
G|-0-0-0-0--0---0-0---2---2-2--2-2--2-2--2--| 
D|-0-0-0-0--2---0-2---0---0-0--0-0--0-0--0--| 
A|-2-2-0-2--3-------------------------------| 
E|-3-3--------------------------------------| 

   G        C            D 
E|-3-3-3-3--3---3-3---2---3-2--2-2--2-2--2--| 
B|-3-3-3-3--3---3-3---3---3-3--3-3--3-3--3--| 
G|-0-0-0-0--0---0-0---2---2-2--2-2--2-2--2--| 
D|-0-0-0-0--2---0-2---0---0-0--0-0--0-0--0--| 
A|-2-2-0-2--3-------------------------------| 
E|-3-3--------------------------------------| 

2 
   D 
E|-2---2-2---2-2---2-2--2-------------------| 
B|-3---3-3---3-3---3-3--3-------------------| 
G|-2---2-2---2-2---2-2--2-------------------| 
D|-0---0-0---0-0---0-0--0-------------------| 
A|------------------------------------------| 
E|------------------------------------------| 

3 
   D 
E|-2---2-2---2-2---2-2--2-------------------| 
B|-3---3-3---3-3---3-3--3-------------------| 
G|-2---2-2---2-2---2-2--2-------------------| 
D|-0---0-0---0-0---0-0--0-------------------| 
A|------------------------------------------| 
E|------------------------------------------| 

4 
   A 
E|-0---0-0---0-0---0-0--0-------------------| 
B|-2---2-2---2-2---2-2--2-------------------| 
G|-2---2-2---2-2---2-2--2-------------------| 
D|-2---2-2---2-2---2-2--2-------------------| 
A|-0---0-0---0-0---0-0--0-------------------| 
E|------------------------------------------|

roll up this ad to continue

share this page

See Also: