E-Chords
The Babies

Alligator(Chords)

The Babies

Key: G
Capo on 2nd fret
Guitars 1&2  
 -- all notes relative to capo -- 

GUITAR 1 

Chords: 

    G  Cmaj7/G  Am  C/G  C 
e|--3--0--------0---0----0--| 
B|--3--0--------1---1----1--| 
G|--4--0--------2---0----0--| 
D|--5--2--------2---2----2--| 
A|--5--3--------0---3----3--| 
E|--3--3--------3---3-------| 
(Verse) G There's no job Cmaj7/G To pay the rent G There's no love Cmaj7/G To make it better G There's no plans Cmaj7/G Whatchu doing later? G Take my hand, Cmaj7/G Alligator Am C/G Life is funny Am C/G Life's a laugh Am C/G Life is lonely Am C/G G It's a drag and what's your name... etc.
G Cmaj7/G G Cmaj7/G I've been on the way too long G Cmaj7/G G Cmaj7/G I've been on the way too lo - ong
etc. (into solo) Am C/G Life is funny Am C/G Life's a laugh Am C/G Life is lonely Am C/G Am It's a drag and oh ... C What a drag ...
GUITAR 2 

(solo) 
Guitar 1: chords as in verse 
e|-7------7-3-5-3-0----3--(3)--5/7-7-7-7--7--7--3h5-5-3-0----3h5p0-3p0-------| 
B|---------------------------------------------------------------------3p0---| 
G|---------------------------------------------------------------------------| 
D|---------------------------------------------------------------------------| 
A|---------------------------------------------------------------------------| 
E|---------------------------------------------------------------------------| 

e|-/12-12-12--12--7--7-3-5-3-0---0-3--3--7-7-----7\-3h5-5-3-0----(0)3h5p0-3p0| 
B|---------------------------------------------------------------------------| 
G|---------------------------------------------------------------------------| 
D|---------------------------------------------------------------------------| 
A|---------------------------------------------------------------------------| 
E|---------------------------------------------------------------------------| 

e|---------------------------------------------------------------------------| 
B|-3p0-----------------------------------------------------------------------| 
G|---------------------------------------------------------------------------| 
D|---------------------------------------------------------------------------| 
A|---------------------------------------------------------------------------| 
E|---------------------------------------------------------------------------| 
************************************ | / slide up | \ slide down | h hammer-on | p pull-off | ~ vibrato | + harmonic | x Mute note | b Bend | pb Pre-bend | br Bend release | pbr Pre-bend release | brb Bend release bend ************************************

roll up this ad to continue

share this page

See Also: