E-Chords
The Ark

Beauty Is The Beast(Chords)

The Ark

Key: Em
Bass 

E-0-0-0--------0-------2-----2---------0-1-2-3---3-3--------------------| 
A------------------2-2----2-2-----3-3-------------------0-2-------------| 
D--------2-2-2-------------------------------------------------0-2------| 
G---------------------------------------------------------------------0-| 
Verse Em Men have made the a-bombs Bm Men have made guns C The dreaded torture chambers G And the barbed wire fence /F# Em But of all the awful things Bm That men did invent C The idea of ideal beauty G Is worth the most contEmpt
Am And tell me whoŽs a killer? D If we all consider G C /B That Emotions runs as deep as flesh Am The idea of ideals D That say what beauty is Em D Has sentenced so many to death Em So if beauty is your friend Bm You'd better go deceive it C Beauty is the beast G /F# You better believe it Em You're wasting your all life Bm If you're trying to achieve it C Beauty is the beast G /F# And you better believe it Em Beauty is the beast, Beauty is the beast, Beauty is the beast C D And youŽd better belive it! Em Beauty is the beast, Beauty is the beast, Beauty is the beast
Verse C G Em D Now who can tell me how and where to begin C G Em D In a world who thinks of ugly as the cardinal sin C G Em D And constantly is talking about the beauty within C Em D Em But locks up in the cellar everything that is grim
Am And tell me whoŽs a killer? D If we all consider G C /B That Emotions runs as deep as flesh Am The idea of ideals D That say what beauty is Em D Has sentenced so many to death
Bass 

E-0-0-0---------------2-----2-----0-1-2-3-3-------------------| 
A---------------0-2-2---2-2----3--------------0-1-2-----------| 
D--------2-2-2----------------------------------------0-2-----| 
G-----------------------------------------------------------0-| x4 
(Bass) Beauty is the beast Beauty like a barbed wire fence Beauty is the beast Beauty like a barbed wire fence Beauty is the beast Beauty like a barbed wire fence Verse Em So if beauty is your friend Bm You'd better go deceive it C Beauty is the beast G /F# You better believe it Em You're wasting your all life Bm If you're trying to achieve it C Beauty is the beast G /F# And you better believe it x2 Outro Em Beauty is the beast, Beauty is the beast, Beauty is the beast C D And youŽd better belive it! Em Beauty is the beast, Beauty is the beast, Beauty is the beast C D And youŽd better belive it! Em Beauty is the beast, Beauty is the beast, Beauty is the beast, Beauty is the beast!

roll up this ad to continue

share this page

See Also: