E-Chords
Tesla

Paradise(Chords)

Tesla

Key: Am
Intro: Am   E4 

Riff: 
 
E|----------------------------------------------| 
B|--5----5---6--5---0--5--5----5---6---5---0----| 
G|--5----5---7--5---7--5--5----5---7---5---7~---| 
D|-----7---------------------7------------------| 
A|-----7---------------------7------------------| 
E|----------------------------------------------| 

E|----------------------------------------------------------------------| 
B|-8-6-5--6-8--5-6--8-8-8-8--6-5----------------------------------------| 
G|--------------------------------7--5b7p5--4----4-5-4----4-5-4--5-4----| 
D|-----------------------------------------------------7--------------7-| 
A|----------------------------------------------------------------------| 
E|----------------------------------------------------------------------| 
 
E|---------------5-7-8-10---12-13--15-15-15-15--13-12---13-12-----12-13-| 
B|---------5-6-8-----------------------------------------------15-------| 
G|---4-5-7--------------------------------------------------------------| 
D|----------------------------------------------------------------------| 
A|----------------------------------------------------------------------| 
E|----------------------------------------------------------------------| 

E|--15-15-15-15--13-12--------------------------------------------------| 
B|----------------------15--13b15--12--12-13-12----12-13-12-------------| 
G|----------------------------------------------14----------------------| 
D|----------------------------------------------------------------------| 
A|----------------------------------------------------------------------| 
E|----------------------------------------------------------------------| 
Riff: Am Dm Hold me close now, hold me tight. G Em F G Don't let go of me tonight. Am Dm You're all I want, you're all I need. G Hold me close now, hold me tight. Em F G Don't let go of me tonight. Riff Sweet paradise. C Am F How I love all of those crazy little things G7 Am You've said and done for me. Am You're the one for me. Dm Darlin', dry your eyes. F I can't stand to see you cry. G7 Now just turn and walk away. Em Am Don't look back when I say goodbye paradise. (Riff) Am Dm Days go by and life goes on. G Em F G Feel I've been away too long. Am Dm What I would give to be with you. G Days go by and life drags on. Em F G Feel I've been away too long, Riff For much too long, yeah. C Am F And all the while that I'm away, G7 Am Don't let our love fade away. Am Don't you fade away. Dm F Now as sure as the sun is gonna shine, F The day will come. G7 Now I'm waitin' for the day. Em Am There'll be no more sayin' goodbye paradise. Am My sweet paradise. Dm You are the reason why F G It tears me up inside, Em And I break down and cry. Am Didn't want to say goodbye paradise. (Am E4 E) F G I'm comin' home to you tonight, Em Comin' home to you tonight, so hold on tight. Am Tonight I'm on my way back home to paradise. (Am E4 Am) 2X Am E4 Am I'm so lost without you, Am E4 Am Can't live without you. Dm D4/A Dm I've been away too long now. Dm D4/A Dm Am E4 AM Tonight I'm on my way back home to you. Am E4 Am Dm D4/A Dm Dm D4/A Dm My, my paradise. My, my paradise. F G Em Dm To hold you in my arms, you're all that I adore, F G Em Dm Dm To see your smilin' face as I walk through the door. I'll never say goodbye again. ( Dm C B4 F G ) 4X Solo:
 
     Dm                         C    B4   F    G     Dm           C 
E|-------------5------------------------10-8----8------------------------| 
B|-------5-6-8---8-6-5--6-8-6-5---10-8-------10----13b15-10-13-13b15-----| 
G|---5-7------------------------7----------------------------------------| 
D|-----------------------------------------------------------------------| 
A|-----------------------------------------------------------------------| 
E|-----------------------------------------------------------------------| 

                  B4    F                G          Dm 
E|--13-12-10-------------------------------------------------------------| 
B|------------13-10b11-------------------------------------------10-11---| 
G|---------------------12b13--10-9-10----10--------------9-10-12---------| 
D|------------------------------------12----10-12--10-12-----------------| 
A|-----------------------------------------------------------------------| 
E|-----------------------------------------------------------------------| 

                           C       B4       F      G     Dm 
E|-----------------------------------------------------------------------| 
B|--10----------------------------------------------------------10-11-13-| 
G|-----12-10-12-9-10----9---------10-12---10-12---------9-10-12----------| 
D|-------------------12---10-12------------------12-10-------------------| 
A|-----------------------------------------------------------------------| 
E|-----------------------------------------------------------------------| 
 
     C                B4     F         G             Dm 
E|--10-------10-12-13--13-15--15-13-12-13----12--------------------------| 
B|-----13b15------------------------------15----13--13-15----------------| 
G|-----------------------------------------------------------------------| 
D|-----------------------------------------------------------------------| 
A|-----------------------------------------------------------------------| 
E|-----------------------------------------------------------------------|

roll up this ad to continue

share this page

See Also: