E-Chords
Tersol

Perdida(Chords)

Tersol

Key: G
INTRO 
        D 
e|--------------------------------------| 
B|------7-7-7-7-5-5---7-7-7-8-8-10-10---| 
G|------7-7-7-7-7-7---7-7-7-7-7-9--9----|  2X 
D|--------------------------------------| 
A|--------------------------------------| 
E|--------------------------------------| 
 
RIFF 
     D        A    Bm          G 
e|---5--5----------5--5-5---------------| 
B|---------7--5~------------7--5--------| 
G|--------------------------------7~----| 
D|--------------------------------------| 
A|--------------------------------------| 
E|--------------------------------------| 
 
     D        A    Bm          G  
e|---5--5-5----------------------------------------------| 
B|-----------7--5~---5--5-7--8--7--5-----8--7-----5------| 
G|------------------------------------7--------7-----7~--| 
D|-------------------------------------------------------| 
A|-------------------------------------------------------| 
E|-------------------------------------------------------| 
VERSOS G D É você que estava ali A sem saber pra onde ir G G perdida ti achei no meu jardim D Já era tarde a festa já tinha terminado A ele saiu acompanhado G G nem deu razão para você D O dia quase clareando A e eu ali imaginando G G um modo pra poder me aproximar D Mais de mil coisas pra falar A e quanto tempo eu vivi esperando a hora certa de agir REFRÃO D A Te encontrar Bm G Perceber D A Bm G Sem pensar que a tão pouco tempo eu vivia sem você D A Pra que chorar? Bm G Pra que se arrepender? D A Bm G Ao seu lado eu vou estar não tenha tanto medo de mudar e de viver VERSOS G D Enquanto a gente conversava A G eu sentia a sua dor D ele apenas te usava A G não te deu nenhum valor D quando o Sol apareceu, A G segurei a sua mão A A você me deu um beijo então REFRÃO D A Te encontrar Bm G Perceber D A Bm G Sem pensar que a tão pouco tempo eu vivia sem você D A Pra que chorar? Bm G Pra que se arrepender? D A Bm G Ao seu lado eu vou estar não tenha tanto medo de mudar e de viver INTERLUDE E Gb G Você não está vendo? D A G Gb E E É a nossa chance de enfim continuar E Gb G não é coisa de momento D A deixe ele de lado e vamos recomeçar REFRÃO D A Te encontrar Bm G Perceber D A Bm G Sem pensar que a tão pouco tempo eu vivia sem você D A Pra que chorar? Bm G Pra que se arrepender? D A Bm G Ao seu lado eu vou estar não tenha tanto medo de mudar e de viver
RIFF 
 
     D        A    Bm          G 
e|---5--5----------5--5-5---------------| 
B|---------7--5~------------7--5--------| 
G|--------------------------------7~----| 
D|--------------------------------------| 
A|--------------------------------------| 
E|--------------------------------------| 
 
     D        A    Bm          G  
e|---5--5-5----------------------------------------------| 
B|-----------7--5~---5--5-7--8--7--5-----8--7-----5------| 
G|------------------------------------7--------7-----7---| 
D|-------------------------------------------------------| 
A|-------------------------------------------------------| 
E|-------------------------------------------------------| 
 
 
INTRO DENOVO 
        D 
e|--------------------------------------| 
B|------7-7-7-7-5-5---7-7-7-8-8-10-10---| 
G|------7-7-7-7-7-7---7-7-7-7-7-9--9----|  2X 
D|--------------------------------------| 
A|--------------------------------------| 
E|--------------------------------------| 
Final (D D Bm A) deixa soar.... _______________________________________________________ Contribuição: Bruno Alves Barata([email protected])

roll up this ad to continue

share this page

See Also: