E-Chords
Tersol

O certo é o certo(Chords)

Tersol

Key: F#m
**Os caras usam 2 violões, um faz a base e o outro faz os solinhos q 
  estão ai bem explicadinhos 
 
 Base da intro:  ( F#m   D9   A   E ) 
 
Solo da intro: 
e|---5-4-----5-4-----5-4----------------5-4----7-5----5-4-------------- 
B|-------5-------5-------5---5-5/7-5--------5------5------5---5-5/7-5-- 
G|--------------------------------------------------------------------
F#m D9 A Quem me dera nessa vida, eu realizar metade E F#m Trago sonhos na bagagem, não há como duvidar D9 Caminhando, esbarrando e tropeçando A E E as vezes procurando alguém pra me espelhar C#m E Minhas idéias são mais vivas, quando faço o que gosto A E Só não faço o que não posso, aprendi a respeitar C#m E O certo é o certo já dizia um cara esperto A E Esse é um bom conselho q comigo eu vou levar... (o violão solo, toca a intro nessa parte) F#m D9 Não adianta botar pilhaa... A E Nem tão pouco jogar contraa... F#m D9 O final já ta escritoo... A E Só nos falta alcançar... F#m D9 Não vou mais fugir dos meus ideais A E Sei que aprendi errando, mas agora sou capaz F#m D9 De admitir sem o pé atrás A E Porque o errado é sempre o certo, sempre o certo e nada mais...
  ( F#m   D9   A   E ) 
 
e|-5-4----5-4----------------------------------------7-9-10/12-121212-1010-99-77- 
B|-----5------5-5/7-5-------------------------7-9-10------------------------------ 
G|---------------------7-7-7-6-4-4/6~---6-7-9------------------------------------- 
 
e|--10-9-7-9-10-9-7-5----------------------- 
B|--7------------------------------------------ 
G|--7---------------------------------------- 
 
 
 
              e|-5-4?---        e|-5-4?-- 
              B|-----5--        B|-----5-- 
Não adianta botar pilhaa... 
              e|-5-4?---         e|---------- 
              B|-----5--         B|-5-5/7-5-- 
Nem tão pouco jogar contraa... 
               e|-5-4?--          e|-7-5?-- 
               B|-----5--         B|-----5-- 
O final já ta escritoo... 
             e|-5-4?-- 
             B|-----5--      
Só nos falta alcançar! 
 
(ele dá uma paradinha e entra no solinho abaixo bem rápido) 
 
e|--------4-5-7-7/9-9-9-7-5-5------ 
B|--4-5-7----------------------- 
 
 
(um violão fica fazendo a base  F#m, D9, A, E  e o outro faz esse solinho junto com a letra) 
 
 
   Não vou mais fugir dos meus ideais 
e|--5---5---4----------5---5---7-7-7-5--- 
B|--------------5--3--------------------- 
 
   Sei que aprendi errando mas agora sou capaz... 
e|--5?-5---5-5-5-5-5--4-4-4-4---7-7-5-4-5-4-2~~---------- 
B|----------------------------------------------------- 
 
 
(continua e termina com esse solinho)... 
 
e|-5--5h7--5--5h7--5---7/9-7/5-5-5-7/9-7-7~--- 
B|----------------------------------------- 
 
e|-7-10/12-10-9----9----10/12-10-9---9---10/12-10-9~---9-7~--7-4------ 
B|--------------10---10-----------10--10------------------------------

roll up this ad to continue

share this page

See Also: