E-Chords
Tercer mundo

Tarjetitas(Chords)

Tercer mundo

Key: G
 
 
Intro:  
       G        Bm       Em              (D) (Em)  C 
e) |---------15-14-----10-12---15-14-12-10---------10/13---| 
b) |--6/8---------------------------------------12---------| 
g) |-------------------------------------------------------|  
d) |-------------------------------------------------------| 
a) |-------------------------------------------------------|   
e) |-------------------------------------------------------| 
  
            G       Em                    G        D 
e) |--10h12-10---------------15-14-12----------------------| 
b) |-----------8---8/10---------------10--8---8/10---------| 
g) |-----------------------------------------------11------|  
d) |-------------------------------------------------------| 
a) |-------------------------------------------------------|   
e) |-------------------------------------------------------|
Verse: G Bm Em A donde se han ido tus ganas de C Em Am ser una persona imprescindible D C G Donde has escondido tus deseos C Em Am Tus anhelos de días mejores D C G Es que te han comprado con animalitos C D C G Con palabras vacías Am D Con tarjetitas de amor Ahora que ya no estás a mi lado y que tu vida me sabe ajena ahora que ya no te interesan más las cosas simples que te ofrecía ahora que ellos te desean recuerda que yo era tuyo y que creía en tí
G D F C Esto es así, no siempre se acierta, no G D F C yo que te amaba y tú nunca pudiste entenderlo, no G D F C Pero tal vez te has dado cuenta ya G D F C que esto de amar es más complicado que dar regalos y besos
Guitar Solo: el solo de guitarra todavía no lo he sacado, pero aqí estan los acordes que lo acompañan: G5 B5 E5 C5 E5 A5 D5 C5 G5 C5 D5 C5 G5 A5 A5 Sigue esta parte: A E G D No me digas que vuelves a aparecer A E G D E E siempre pidiendo y tú no sabes dar Chorus 2: B5 F#5 A5 E5 Esto es así, no siempre se acierta, no B5 F#5 A E5 yo que te amaba y tú nunca pudiste entenderlo, no B5 F#5 A5 E5 Pero tal vez te has dado cuenta ya B5 F#5 A5 E5 que esto de amar es más complicado que dar regalos y besos
Outro: 
      B5      F#5       A5  E5              B5 
e) |------------------------12-11--------------| 
b) |------------------------------12--------12-| 
g) |-----8-9-9/11---9/8--------------11-9-8----|  
d) |--9-----------------9----------------------| 
a) |-------------------------------------------|   
e) |-------------------------------------------| 
 
 
Acordes usados: 
 
     Bm   F#5  G   A5  D  Em   F    B5  D5  E5  C5  G5  C  Am 
e) |--2----x---3---x---2---0---1----x---x---x---x----x--0---0--| 
b) |--3----x---3---x---3---0---1----x---x---x---x----x--1---1--|   
g) |--4----x---0---x---2---0---2----4---7---x---5----x--0---2--| 
d) |--4----4---0---7---0---2---3----4---7---2---5----5--2---2--| 
a) |--2----4---2---7---0---2---3----2---5---2---3----5--3---0--|   
e) |--2----2---3---5---x---0---1----x---x---0---x----3--x---x--|
Creo que no hay errores en esta tablatura. Sugerencias o comentarios: [email protected] www.robmusica.8m.com Tabbed by: Roberto 'guerrero de carton' Ferrín

roll up this ad to continue

share this page

See Also: