E-Chords
Tercer mundo

Ropa interior del año 2000(Chords)

Tercer mundo

Key: D
Intro:  
La introducción es tocada en un sintetizador, y por ésto me salto 
directo al verso. 
 
Verse: 
D                   F#m 
Es la puerta al año 2000 
           Bm                G 
debes prometer portarte muy bien 
           D                       F#m 
porque si existe el mal y el bien 
           Em                            F#m 
tu lado obscuro no está sano al cien por cien 
                  G 
como efecto de la soledad 
            E  C G      D         A 
que vive en 1999,  la humanidad. 
 
D                  F#m 
Y podrías considerar 
            Bm              G 
volver a nacer con la claridad 
         D               F#m 
si dejas tu pelo crecer 
             Em                          F#m 
si es que sonríes cuando halas del toilet 
                      G 
con los restos de esa caridad 
       E   C G        D       A5 A5 A5 A5//// 
que en 1999   piensas rechazar 
 
Chorus: 
 
     Em                               Bm 
e) |-------------------------------------------------------------| 
b) |-------------------------------------------------------------| 
g) |---------------------------------4-----6--------7----9-------|  
d) |--2-----------4-------5----7---------------------------------| 
a) |-------------------------------------------------------------|   
e) |-------------------------------------------------------------| 
     Guarda en tu armario a la quinceañera.....si enloquecías   
 
      Em                             Bm 
e) |-------------------------------------------------------------| 
b) |-------------------------------------------------------------| 
g) |---------------------------------4-----6--------7----9-------|  
d) |--2-----------4-------5----7---------------------------------| 
a) |-------------------------------------------------------------|   
e) |-------------------------------------------------------------| 
     soñando      a  través de los  poetas 
 
      Em                             Bm 
e) |---------------------------------------------------------| 
b) |---------------------------------------------------------| 
g) |--------------------------------4----6-----7-------9-----|  
d) |--2---4-------5--------7---------------------------------| 
a) |---------------------------------------------------------|   
e) |---------------------------------------------------------| 
          Ahora tu crees estar más cuerda y tu medium es  
 
      D                           A 
e) |---------------------------------------------------------| 
b) |---7-8-------10---------12----10-------------------------| 
g) |---------------------------------------------------------|  
d) |---------------------------------------------------------| 
a) |---------------------------------------------------------|   
e) |---------------------------------------------------------| 
un loco que sueña en besar tus tetas. D F#m Dentro de un monitor Bm G el año 2000 sin tu curación D F#m y al otro lado del cristal Em F#m todo lo que haces ocupa un mega de RAM G si guarda menos tu corazón E C G D F#m hice poemas a tu ropa interior G si guarda menos tu corazón E C G hice poemas siempre para tu ropa interior Luego viene el solo de guitarra (que por cierto no lo he sacado): Estos son los acordes que acompañan al solo: D F#m Bm G D F#m G Gm D F#m Bm G D F#m G Gm D
Acordes usados: 
      D  F#m  Bm  G  Em  E  C  A5  Gm 
e) |--2---2----2--3---0--0--0---x---3--| 
b) |--3---2----3--3---0--0--1---x---3--| 
g) |--2---2----4--0---0--1--0---x---3--|  
d) |--0---4----4--0---2--2--2---7---5--| 
a) |--x---4----2--2---2--2--3---7---5--|   
e) |--x---2----2--3---0--0--0---5---3--| 
Creo que los acordes son correctos. Comentarios, correcciones, Bienvenido :-) [email protected] www.guerrerosdecarton.9f.com Tabbed by: Roberto 'El DVDE' Ferrín

roll up this ad to continue

share this page

See Also: