E-Chords
Tercer mundo

Estas ahi(Chords)

Tercer mundo

Key: F
 
Intro:  
             Dm     F   A#       A         F         G              A# 
e) |---13p12-13---------10--9/10-9-----8-6-8-------8/10-------13p15-13----| 
b) |-------------10-10-----------------------6-6--------8-8---------------| 
g) |----------------------------------------------------------------------| 
d) |----------------------------------------------------------------------| 
a) |----------------------------------------------------------------------| 
e) |----------------------------------------------------------------------| 
Verse: F A# C El tiempo que pasa tu vida se queda, Dm A# C (A#) te busco en mis recuerdos no hay nada de ti, F A# C y todos me hablan de lo que serias, Dm A# C A# y yo prefiero crear mi historia, sentirte aqui. Chorus: Am A# F Dm Estas en los niņos que sonri­en al ver llover, C A# F C los que soņando van halando de un cordel, Am A# F Dm volando hacia algun lugar, sembrando con ellos vas, C A# F C sus manos duras se extienden hacia ti. Se repite el intro: verse 2: F A# C Tus ojos se me escapan tu voz se me pierde Dm A# C (A#) tu y yo somos una foto que cuelga en mi pared F A# C como pudiera, como quisiera Dm A# C (A#) reir contigo, vivir lo que no vivi­. Se repite el coro x 2 Se repite el intro x 2 y se finaliza con F
Acordes usados: 
      F  A#  C  Dm  Am  A  G 
e) |--1--1---0---1---0--0--3---| 
b) |--1--3---1---3---1--2--3---| 
g) |--2--3---0---2---2--2--0---|  
d) |--3--3---2---0---2--2--0---| 
a) |--3--1---3---0---0--0--2---|   
e) |--1--1---0---x---0--0--3---| 
Comentarios, correcciones, Bienvenido :) [email protected] www.robmusica.8m.com Tabbed by: Roberto 'guerrero de carton' Ferri­n

roll up this ad to continue

share this page

See Also: