E-Chords
Temptations

My girl(Chords)

Temptations

Watch the video lesson
Key: C
Intro: 
 
e|-------------|-------------| 
B|-----------1-|-----------1-| 
G|-------0-2---|-------0-2---| 
D|---0-2-------|---0-2-------| 
A|-3-----------|-3-----------| 
E|-------------|-------------| 
Aqui começa o vocal, e a variação entre dó e fá maiores é da seguinte forma: 
e|-------------|-------------| 
B|-----------1-|-------------| 
G|-------0-2---|-------------| 
D|---0-2-------|---------0-2-| 
A|-3-----------|-----0-3-----| 
E|-------------|-1-3---------|
C F C I?ve got sunshine on a cloudy day F C F C F When it?s cold outside I?ve got the month of May C Dm F G C Dm F G I guess you say What can make me feel this way? C Dm G F G My girl, my girl, my girl talking about my girl, my girl... C F C I?ve got so much honey the bees envy me F C F C F I?ve got a sweeter song than the birds in the tree C Dm F G C Dm F G Well, I guess you say What can make me feel this way? C Dm G F G My girl, my girl, my girl talking about my girl, my girl, hum... Repete Intro: 3x Dm G Em A D G D I don?t need no money, fortune or fame G D G D G I?ve got all the riches, baby One man can claim D Em G A D Em G A Well, I guess you say What can make me fell this way? D Em A G F#m Em My girl, my girl, my girl talking about my girl, my girl... ( talking about my girl ) G I?ve got sunshine on a cloudy day with my girl... A G F#m Em D G I?ve even got the month of May with my girl ( talking about my girl ) repeat and fade

roll up this ad to continue

share this page

See Also: