E-Chords
Temple of the dog

Times of trouble(Chords)

Temple of the dog

roll up this ad to continue

Key: C
Times of Trouble. 

by Juan Cruz Caorsi 

Chords: 

|------------0----------------| 
|--1----3----0-----3---1------| 
|--0----0----0-----0---2------| 
|--2----4----2-----0---3------| 
|--3----5----2-----2---3------| 
|------------0-----3---1------| 
   C    D    Em    G   F 

Intro: (riff 1) 

Riff 1: 

|--------------| 
|------3--1----| 
|------0--2----| 
|------0--3----| 
|------2--3----| 
|-1h3--3--1----| 
G F G - F When the spoon is hot And the needle's sharp And you drift away I can hear you say That the world in black Is upon your back And your body shakes So you ditch away And you close the shades F C D* Don't try to do it C D* Em C Don't try to kill your time C D* You might do it C D* Em C Then you can't change your mind C D You've got a hold on to your time C Till your break through these F G* Times of trouble
*Riff 2                     **Riff 3 
|----------------------------------------------| 
|--1--3--5--3----------------------------------| 
|--0--0--0--0----------------------------------| 
|--2--2--4--4----------------------------------| 
|--3--3--5--5-------------------------2--------| 
|---------------------------------------3-3-1--| 
C D G - F When you try to talk And the words get hard And they put you down Don't you stay Don't you ditch away F C D* I saw you swinging C D* Em C Swinging your mother's sword C D* I know you're playing but C D* Em C Sometimes the rules get hard C D C D But if somebody left you out on a ledge C D C D If somebody pushed you over the edge C D C You got to hold on to your time till you break F G* Through these times of trouble Solo (G - F) F C D* I saw you swinging C D* Em C Swinging your mother's sword C D* I know you're playing but C D* Em C Sometimes the rules get hard C D C D But if somebody left you out on a ledge C D C D If somebody pushed you over the edge C D C D If somebody loved you and left you for dead C D C You got to hold on to your time till you break F G* Through these times of trouble F - G G
share this page

See Also: