E-Chords
Temple of the dog

Say Hello 2 Heaven(Chords)

Temple of the dog

roll up this ad to continue

Key: G
 
Acordes    EADGBE 
 
 Am        002210 
 B         224432 
 Bb6       013033 
 C         032010 
 C7        032310 
 Cadd9     032033 
 D         000232 
 Em        022000 
 Em7       022033 
 Em7/A     002033 
 F         133211 
 G         320033 
 G         355433 
 G#        466544 
 
Introdução: 
 
E|-----3----3----------3---3----------0-----| 
B|---3----3-----3----3----3---3-----3---3---| 
G|--------------------------------0-------0-| 
D|-3----3-----3----2----2---2---------------| 
A|------------------------------1-----------| 
E|------------------------------------------| 
 
E|--------0----------3-----3-------0----------0| 
B|------3---3------3-----3-------3---3---------| 
G|----0------0-----------------0-------0----0--| 
D|---------------------------------------------| 
A|-0------------3------3-----2-----------------| 
E|----------------------------------------1----| 
 
E|-----0-------0-----| 
B|-----------3---3---| 
G|---0-----0-------0-| 
D|-------------------| 
A|-------------------| 
E|-1-----0-----------| 
 
F G#  G   - 3x 
 
Verso 1 
 
 G             Am        C            Em 
 Please mother mercy take me from this place 
         G           Am           C             F 
 And the long winded curses I keep hearing in my head 
 G           Am          C              Em 
 Words never listen and teachers never learn 
 G                     Am           C               F         
 Now I'm warm from the candle but I feel to cold to burn 
 
Bridge 
 
 He came from an island and he died from the street 
 
 -------3------3------3------3---------0-------------0------ 
 -----3------3------3------3---------3---3---------3---3---- 
 ----------------------------------0-------0-----0-------0-- 
 ----------------------------------------------------------- 
 ---3------3------2------2---------------------------------- 
 --------------------------------1-------------0------------ 
    G                  Bb6                  Em7/A              Cadd9      
 He hurt so bad like a soul breaking but he never said nothing to me 
 
  
Refrão 
 
              G       D       C7 
 Say hello to heaven, heaven, heaven 
 (N.C.)       G       D       C7 
 Say hello to heaven, heaven, heaven 
 
F G#  G   
 
 Verso 2 
 
 G          Am7   C           Em 
 New like a baby, lost like a prayer 
 G                Am7                C                    F 
 The sky was your playground but the cold ground was your bed 
 G        Am7         C                   Em 
 Poor stargazer she's got no tears in her eyes 
 G             Am7                    C                          F 
 Smooth like a whisper she knows that love heals all wounds with time 
 
 
Bridge ( Mesmas Notas ) 
  
Now it seems like too much love is never enough 
 You better seek out another road 'cause this one has ended abrupt 
 ..oh.. 
 
 
Refrão 2x 
 
Solo  
 
F G#  G   
 
Verso 3 
 G       Am7                   C              Em 
 I never wanted to write these words down for you 
            G        Am7        C                  F 
 With these pages of phrases of things we'll never do 
      G            Am7          C          Em  
 So I blow out the candle and I put you to bed 
           G                       Bb6  
 Since you can't say to me how the dogs broke your bone 
         B                         C 
 There's just one thing left to be said ..yeah.. 
 
Refrão 2x 
 
F G#  G   
 
_______________________________________________________ 
Contribuição: Thales Rafael Chaves de Lima([email protected]) 
share this page

See Also: