Temas Diversos

12 Horas(Chords)

Temas Diversos

Key: D

roll up this ad to continue

	        ( uma hora eu nasci  s duas me batizei   s trs estava em namoro    s quatro eu me casei...) 

 
E|---2---------------|---3----------------|---3-3-3--------------------|----------------------------| 
B|-3---3-3-2-3-5-----|-5---5-5-3-5-7------|-7-------7-5-3/8-8----------|-8-7-3-5-3-2-3--------------| 
(s cinco estava doente s seis para morrer s sete em cima da mesa s oito no caixo...)
 
E|---2-------------------|---3----------------|---3-3-3-3---------------|---------------------------| 
B|-3---3-3-2-3-5-5-------|-5---5-3-5-7--------|-7---------7-5-3/8-8-----|-8-7-3-5-2-3---------------| 
(s nove acompanhado(a) s dez no cemitrio s onze debaixo da terra E meia noite no cu...)
 
E|---2-------------------|---3----------------|---3-3-3-3---------------|---------------------------| 
B|-3---3-3-2-3-5-5-------|-5---5-3-5-7-7------|-7---------7-5-3/8-8-----|-8-7-3-5-3-2-3-------------| 
(O cu cobriu-se de luto A terra estremeceu Os passarinhos cantavam Por que (nome) morreu ?...)
 
E|---2-------------------|---3----------------|---3-3-3-----------------|---------------------------| 
B|-3---3-3-2-3-5-5-------|-5---5-5-3-5-7------|-7-------7-5-3/8-8-------|-8-7-3-5-3-2-3-------------| 
D A uma hora eu nasci G A D s duas me batizei D7 G s trs estava em namoro Bm A D s quatro eu me casei... D A s cinco estava doente G A D s seis para morrer D7 G s sete em cima da mesa Bm A D s oito no caixo... D A s nove acompanhado(a) G A D s dez no cemitrio D7 G s onze debaixo da terra Bm A D E meia noite no cu... D A O cu cobriu-se de luto G A D A terra estremeceu D7 G Os passarinhos cantavam Bm A D Porqu (nome) morreu ?...
share this page

See Also: