E-Chords
Tee Set

She Likes Weeds(Chords)

Tee Set

Key: G

INTRO 
   G             Am         C                  G 
e|-------------------------------------------------------| 
B|-10b-10b-10p8-810b-10br---10b-10b-10pbr8-10br8-------8-| 
G|-------------9--------------------------------------9--| 
D|-------------------------------------------------------| 
A|-------------------------------------------------------| 
E|-------------------------------------------------------| 

Harmonizing guitar line 
   G                Am           C                   G   
e|-------------------------------------------------------| 
B|-13b-13b-13p12--1213b-13br---1213b-13b-13pbr12-13br12--| 
G|--------------12---------------------------------------| 
D|-------------------------------------------------------| 
A|-------------------------------------------------------| 
E|-------------------------------------------------------| 
verse 1 G Am There's a longnosed dirty old witch Witchipoo C G She speaks a magic word called Shackabadoo C Em D The smell of thousand herbs is hanging round the house where she lives in
VERSE RIFF 
e|-----------------| 
B|-----------------| 
G|-----------------| 
D|---------2-----2-|\ 
A|-0-0-4-0---0-4---| 2x 
E|-----------------|/ 
C G It's built on magic ground verse 2 G Am There's an all kind coloured smoke raising up C G Among her stirring red brass magic pot C Em D Her chimney means a lot to her for her coloured boiling brew VERSE RIFF C G Holding snake tails, but just a few B Chorus B E She likes weeds Am They're easy to grow Am G D They are easy to grow, easy to grow G In the morning dew B B E She likes weeds Am They're easy to grow Am G D And they always are there, everywhere G When she needs a few INTRO RIFF (2x) G Am C G verse 3 G Am But she also keeps a cat or seven C G And a miles far hearing screaming raven C Em A magic stick, a flying broom D Are just a few things VERSE RIFF C G That she keeps in her room B Chorus B E She likes weeds Am They're easy to grow Am G D They are easy to grow, easy to grow G In the morning dew B B E She likes weeds Am They're easy to grow Am G D And they always are there, everywhere G When she needs a few INTRO RIFF 2x G Am C G INTRO RIFF (modulation) A Bm D A OUTRO Chorus (2x, play til the song fades out) C# F# She likes weeds Bm They're easy to grow Bm A E They are easy to grow, easy to grow A In the morning dew C# F# She likes weeds Bm They're easy to grow E And they always are there, everywhere A When she needs a few

roll up this ad to continue

share this page

See Also: