E-Chords
Tee Set

Linda Linda(Chords)

Tee Set

Key: Gm
Intro 
e|----------------------------------------------| 
B|3-3-3-3/4-1-1-1-1/3---------------------------| 
G|-------------------3-3-3-3/5-2-2-2------------| 
D|-----------------------------------5----------| 
A|----------------------------------------------| x2 
E|----------------------------------------------| 
verse 1 Gm Yes I'm here, but now I'm going away, Gm D far away from you my lovely Linda. D But the memories of you always will stay D Gm and your precious grace I will remember, F Bb for the time you gave me nice and tender, F Bb C5 D for the love you gave me soft and sweet. Gm Linda Linda, my Linda, Gm D Linda Linda, I love you. D Gm The magic of your eyes, C F the spirit of your soul, D Gm the presence of your love F D my whole life through Gm Linda Linda, my Linda, Gm D Linda Linda, I love you. D Gm The magic of your eyes, C F the spirit of your soul, D Gm the presence of your love F D my whole life through verse 2 Gm I remember how I met you that night Gm D With your eyes you simply called me over D And the flames of our roaring inside D Gm Arab music play I felt in clover F Bb With your piercing and you make me weak F Bb C5 D And we danced the whole night cheek to cheek
Gm Linda Linda, my Linda, Gm D Linda Linda, I love you. D Gm The magic of your eyes, C F the spirit of your soul, D Gm the presence of your love F D my whole life through Gm Linda Linda, my Linda, Gm D Linda Lin ye, l?il ya in D Gm Cherek romana C F Ah?be quen tu finne D Gm Chanel el quell comand F D Abhar tsi nin
D7 | Ao | D# | E7 | Am Linda Linda, my Linda, Am E Linda Linda, I love you. E Am The magic of your eyes, D G the spirit of your soul, E Am the presence of your love G E my whole life through
e|----------------------------------------------| 
B|5-5-5-5/6-3-3-3-3/5-1-1-1-1/3-----------------| 
G|------------------------------4-4-4-2---------| 
D|----------------------------------------------| 
A|----------------------------------------------| x4 
E|----------------------------------------------| 
Am Linda Linda, my Linda, Am E Linda Linda, I love you. E Am The magic of your eyes, D G the spirit of your soul, E Am the presence of your love G E my whole life through Am Linda Linda, my Linda, Am E Linda Linda, I love you. E Am The magic of your eyes, D G the spirit of your soul, E Am the presence of your love G E my whole life through
Outro
e|----------------------------------------------| B|5-5-5-5/6-3-3-3-3/5-1-1-1-1/3-----------------| G|------------------------------4-4-4-2---------| D|----------------------------------------------| A|----------------------------------------------| x4 E|----------------------------------------------|
Am |

roll up this ad to continue

share this page

See Also: