E-Chords
Tecnomelody  Brasil

Xirley(Chords)

Tecnomelody Brasil

roll up this ad to continue

Key: Bm
Intro: Bm  Em  F# 

Bm                      Em  F# 
Saia vermelha, camisa preta 
               Bm 
Chegou pra abalar 
                       Em             F#               Bm 
Quando tu for na casa dela, lhe buscar, ela vai preparar 
                  Em    F#                Bm 
Café coado na calcinha, só pra lhe enfeitiçar 
                     Em                 F# 
E se tu for na aparelhagem, tu vai ver só 
             Bm 
Ela vai aprontar 

(Intro) 

Bm                      Em  F# 
Saia vermelha, camisa preta 
               Bm 
Chegou pra abalar 
                       Em             F#               Bm 
Quando tu for na casa dela, lhe buscar, ela vai preparar 
                  Em    F#                Bm 
Café coado na calcinha, só pra lhe enfeitiçar 
                     Em                 Bm 
E se tu for na aparelhagem, tu vai ver só... 

 
E|----------------------- 
B|----------------------- 
G|----------------------- 
D|----------------------- 
A|-----5-7-9-9-9--7-9---- 
E|-7-7-------------------
Bm Em F# Eu vou samplear, eu vou te roubar! Bm Em Eu vou samplear, eu vou te roubar! Bm Pa pararaparararara!
 
E|----------------------- 
B|----------------------- 
G|----------------------- 
D|----------------------- 
A|-----5-7-9-9-9--7-9---- 
E|-7-7-------------------
share this page

See Also: