E-Chords
Tame Impala

Yes I'm Changing(Chords)

Tame Impala

roll up this ad to continue

Key: C
Intro chords 
e|--0-------------------0----------------------| 
B|--1----3----0----1----0---------1------------| 
G|--0----0----0----0----2----2----0------------| 
D|--2----2----2----2----2----3----2------------| 
A|--3----3----3----3----0----3----3------------| 
E|---------------------------1-----------------| 
Verse C Cadd9 I was raging, it was late Cmaj7 C In the world my demons cultivate Asus2 F C I felt the strangest emotion but it wasnt hate, for once C Cadd9 Yes Im changing, yes I'm gone Cmaj7 C Yes Im older, yes I'm moving on Asus2 F C And if you dont think it's a crime you can come along, with me C Cadd9 Life is moving, can't you see Cmaj7 C There's no future left for you and me Asus2 F I was holding and I was searching endlessly C G C But baby, now theres nothing left that I can do so Cadd9 Cmaj7 C So don't be blue Asus2 F C There is another future waiting there for you C Cadd9 I saw it different, I must admit Cmaj7 C I caught a glimpse, I'm going after it Asus2 F C They say people never change, but thats bullshit, they do C Cadd9 Yes Im changing, cant stop it now Cmaj7 C And even if I wanted I wouldnt know how Asus2 F C Another version of myself I think I found, at last C Cadd9 And I cant always hide away Cmaj7 C Curse indulgence and despise the fame Asus2 F Theres a world out there and its calling my name C G And its calling yours, girl its calling yours too Outro (you can hear it most clearly at 3:14) Cmaj7 C Cmaj7 C Cmaj7 C Cmaj7 C F Fmin Played like this
e|---------------------------------------------------------------------------| 
B|--0h2-0h2-0h2-0h2---0---0---0---0------------------------------------------| 
G|--0---0---0---0---2---2---1---1--------------------------------------------| 
D|------------------3---3---3---3--------------------------------------------| 
A|--3---3---3---3---3---3---3---3--------------------------------------------| 
E|---------------------------------------------------------------------------|
Its calling yours too, its calling yours too, its calling yours too Its calling out for you Arise and walk, come through Someone beyond that door is calling out for you Arise and walk, come through Its calling out for you Arise and walk, come through Someone beyond that door is calling out for you ?The man who comes back through the Door in the Wall will never be quite the same as the man who went out. He will be wiser but less sure, happier but less self-satisfied, humbler in acknowledging his ignorance yet better equipped to understand the relationship of words to things, of systematic reasoning to the unfathomable mystery which it tries, forever vainly, to comprehend‚?Ě Aldous Huxley - The Doors of Perception
share this page

See Also: