E-Chords
Tame Impala

The Moment(Chords)

Tame Impala

roll up this ad to continue

Key: F#m
Intro: 

F#m G F#m G F#m G F#m Gadd9 x2 


       F#m       G             F#m    G        F#m G F#m Gadd9 
In the end, it's stronger than I know how to be 

      F#m        G              F#m      G        F#m G F#m Gadd9 
And I can't just spend my whole lifetime wondering 

          F#m           G           F#m          G           F#m G F#m Gadd9 
I fell in love with the sound of my heels on the wooden floor 

        F#m      G               F#m    G      F#m G  
I don't want our footsteps to be silent anymore 


F#m             Gadd9     F#m G F#m G F#m G 
   Want them to be in the momeeeeeent 

F#m      Gadd9      F#m G F#m G F#m G F#m Gadd9 
   Storm clouds are closiiiiing  


       F#m       G                 F#m     G         F#m G F#m Gadd9 
In the end, it's gone, and there's nothing left to do 

        F#m       G            F#m     G         F#m G       
But I'm still not certain just how I'm gonna feel 


F#m       Gadd9       F#m G F#m G F#m G   
   I only know in the momeeeeeent 

F#m          Gadd9     F#m G F#m G 
   And anticipation is growiiiiing 


F#m F#m Dmaj7/F# F#m F#m 


             D     Bm  D  C#m  F#m  A  A  Bm    
It's getting closer 

             D     Bm  D  C#m  F#m  A  A  Bm 
It's getting closer 

             D     Bm  D  C#m  F#m  A  A  Bm 
It's getting closer 

             D     Bm  D  C#m  F#m  A  A  Bm 
It's getting closer  


F#m G F#m Gadd9 


Solo (chords during last part) 


F#m G F#m G F#m G F#m Gadd9 x2   

F#m F#m Dmaj7/F# F#m F#m 


             D     Bm  D  C#m  F#m  A  A  Bm    
It's getting closer 

             D     Bm  D  C#m  F#m  A  A  Bm 
It's getting closer 

             D     Bm  D  C#m  F#m  A  A  Bm 
It's getting closer 

             D     Bm  D  C#m  F#m  A  A  Bm 
It's getting closer  

             D     Bm  D  C#m  F#m  A  A  Bm    
It's getting closer 

             D     Bm  D  C#m  F#m  A  A  Bm 
It's getting closer 

             D     Bm  D  C#m  F#m  A  A  Bm 
It's getting closer 

             D     Bm  D  C#m  F#m  A  A  Bm 
It's getting closer  

             D     Bm  D  C#m  F#m  A  A  Bm    
It's getting closer 

             D     Bm  D  C#m  F#m  A  A  Bm 
It's getting closer 

             D     Bm  D  C#m  F#m  A  A  Bm 
It's getting closer 


Solo: 

e ------------------------------------------------------------------------------------- 
B ------------------------------------------------(7h8p7)------------------------------ 
G --4--6--7~~~~6--4s6-4s2--2s6s4s2----------------------------------------------------- 
D ----------------------------------5p4------------------------------------------------ 
A ------------------------------------------------------------------------------------- 
E ------------------------------------------------------------------------------------- 

e ------------------------------------------------------------------------------------- 
B ------------------------------------------------------------------------------------- 
G --4--6--7~~~~6--4s6-4s2--2s6s4s2----------------------------------------------------- 
D ----------------------------------5p4------------------------------------------------ 
A ---------------------------------------7~~7s9---------------------------------------- 
E -------------------------------------------------------------------------------------
share this page

See Also: