E-Chords
Tame Impala

Gossip(Chords)

Tame Impala

roll up this ad to continue

Key: D
          D           E      Eb 
e|---------------------------------------------------------------------------| 
B|---------------------------------------------------------------------------| 
G|---------------------------------------------------------------------------| 
D|---------------------------------------------------------------------------| 
A|-----5--5--5--5----7--7---6--6---------------------------------------------| 
E|---------------------------------------------------------------------------| 

Lead Guitar (0:17) 
e|---------------------------------------------------------------------------| 
B|---------------------------------------------------------------------------| 
G|---------------------------------------------------------------------------| 
D|----4/7--------9--/11--\8--------4/7---------------------------------------| 
A|---------------------------------------------------------------------------| 
E|---------------------------------------------------------------------------| 

(0:27) 
e|---------------------------------------------------------------------------| 
B|--------7----7----7--7-----------------------------------------------------| 
G|---7/9-------8b------9b----------------------------------------------------| 
D|---------------------------------------------------------------------------| 
A|---------------------------------------------------------------------------| 
E|---------------------------------------------------------------------------| 

(0:34) 
e|------------9h10--9--------------------------------------------------------| 
B|--9---10-------------10-----\7---------7br---------------------------------| 
G|---------------------------------------------------------------------------| 
D|---------------------------------------------------------------------------| 
A|---------------------------------------------------------------------------| 
E|---------------------------------------------------------------------------| 

(0:43) 
e|----9h10--9----------------------------------------------------------------| 
B|-------------10---9---7-----7br--------------------------------------------| 
G|---------------------------------------------------------------------------| 
D|---------------------------------------------------------------------------| 
A|---------------------------------------------------------------------------| 
E|---------------------------------------------------------------------------| 

(0:48) 
e|---------------------------------------------------------------------------| 
B|---------------------------------------------------------------------------| 
G|---------------------------------------------------------------------------| 
D|-----4/7-------------4p2h4-------------------------------------------------| 
A|---------------------------------------------------------------------------| 
E|---------------------------------------------------------------------------| 



************************************ 

| /   slide up 
| \   slide down 
| h   hammer-on 
| p   pull-off 
| ~   vibrato 
| +   harmonic 
| x   Mute note 
| b   Bend 
| pb  Pre-bend 
| br  Bend release 
| pbr Pre-bend release 
| brb Bend release bend 

************************************ 
share this page

See Also: