E-Chords
Talles Espaciales

Los Fantasmas No Son Buenos Consejeros(Chords)

Talles Espaciales

roll up this ad to continue

Key: G#
RIFF 
e|--------------------------------------------- 
B|--------------------------------------------- 
G|----4-6-8-6-4---4-6-8-6-4---4-6-8-6-4-- 
D|--6-------------6-------------6-------------- 
A|--------------------------------------------- 
E|--------------------------------------------- 


RIFF CONTINUACIÓN 
e|------------------- 
B|------------------- 
G|-8-6-4-8-6-4------- 
D|-------------6-4-6- 
A|------------------- 
E|------------------- 
G# B C# Eb En forma perceptible te acercás a mi oído G# B C# Eb Los secretos de la muerte me contás entre el ruido G# B C# Eb Tu cuerpo entrando en pleno resplandor de frio G# B C# Eb Santa y larga vida a todos nuestros hijos G# B C# Eb No me aconsejes más G# B C# Eb No me aconsejes mal G# B C# Eb No me aconsejes más G# B C# Eb No me aconsejes mal G# B C# Eb Tu fragil corazón se enfría al sol como nieve G# B C# Eb No te quedés esperando que tu alma se eleve Bb G# F# C# El plomo no es rápida solución creeme Bb G# F# Eb Adolescentes en fila india... les duele G# B C# Eb No me aconsejes más G# B C# Eb No me aconsejes mal G# B C# Eb No me aconsejes más G# B C# Eb No me aconsejes mal G# B C# Eb No me aconsejes más G# B C# Eb No me aconsejes mal G# B C# Eb No me aconsejes más G# B C# Eb No me aconsejes mal
share this page

See Also: