E-Chords
Talles Espaciales

La Policía Toca El Timbre(Chords)

Talles Espaciales

roll up this ad to continue

Key: C#
Entrada 
e|---2---4----------------------------------- 
B|---2---4---------------------------------- 
G|------------------------------------------- 
D|------------------------------------------- 
A|------------------------------------------- 
E|------------------------------------------- 


Riff 
e|------------------------------------------------ 
B|------------------------------------------------ 
G|--6---8----6---8------------------------------ 
D|--6---8----6---8--------8---8---8---8--------- 
A|--4---6----4---6--------8---8---8---8--------- 
E|--------------------------6---6---6---6--------- 
C#5 Eb5 C#5 Eb5 Bb5 Bb5 Bb5 Bb5 Eb5 Bb5 Eb5 Bb5 Eb5 No puedo escaparme, ni saltar la pared Bb5 Eb5 Bb5 Riff La policía llega y yo con un rehén Eb5 Bb5 Eb5 Bb5 Eb5 Quiero esconderme, me encontrarán Bb5 Eb5 Bb5 C#5 Yo no hice nada y me llevarán Eb5 Bb5 A un calabozo C#5 Eb5 Bb5 Y tocan el timbre F5 G#5 C#5 No puedo correr más Eb5 F5 Ya dejenme en paz G#5 C#5 No puedo escapar Eb5 Riff De la policía Eb5 Bb5 Eb5 Bb5 Eb5 No quiero pintar todo este lugar Bb5 Eb5 Bb5 Riff Lo siento llegar... este es el final Eb5 Bb5 Eb5 Bb5 Eb5 Llegando al final todo se ve igual Bb5 Eb5 Bb5 C#5 La gente me mira y no entiende más Eb5 Bb5 Sigo escapando C#5 Eb5 Bb5 La policía llega F5 G#5 C#5 No puedo correr más Eb5 F5 Ya dejenme en paz G#5 C#5 No puedo escapar Eb5 Riff De la policía
share this page

See Also: