E-Chords
Talles Espaciales

La Pibancia Está Flama(Chords)

Talles Espaciales

roll up this ad to continue

Key: C#
e|-------------------------------- 
B|-------------------------------- 
G|--8-8-6-4----------------------- 
D|--8-8-6-4---4-4---4-6-4-6------- 
A|--6-6-4-2---4-4---4-6-4-6------- 
E|------------2-2---2-4-2-4------- 

e|-------------------------------- 
B|-------------------------------- 
G|--8-8-6-4----------------------- 
D|--8-8-6-4---4-6----------------- 
A|--6-6-4-2---4-6----------------- 
E|------------2-4----------------- 

e|-------------------------------- 
B|-------------------------------- 
G|--8-8-6-4----------------------- 
D|--8-8-6-4---4-4---4-6-4-6------- 
A|--6-6-4-2---4-4---4-6-4-6------- 
E|------------2-2---2-4-2-4------- 

e|-------------------------------- 
B|-------------------------------- 
G|--8-8-6-4----------------------- 
D|--8-8-6-4---6------------------- 
A|--6-6-4-2---6------------------- 
E|------------4------------------- 

e|-------------------------------- 
B|-------------------------------- 
G|--8-8-6-4----------------------- 
D|--8-8-6-4---4-4---4-6-4-6------- 
A|--6-6-4-2---4-4---4-6-4-6------- 
E|------------2-2---2-4-2-4------- 

e|-------------------------------- 
B|-------------------------------- 
G|--8-8-6-4-6--------------------- 
D|--8-8-6-4-6--------------------- 
A|--6-6-4-2-4--------------------- 
E|-------------------------------- 
La pibancia está flama Y nos corren por la espalda Nos quieren agitar en nuestro barrio No nos importa el mañana venimos por todo de la nada No tengas miedo entrá en Lonze C#5 Vení D5 Subí Eb5 C#5 B5 F#5 G#5 La pibancia está flama C#5 Vení D5 Subí Eb5 C#5 B5 F#5 G#5 La pibancia está flama Tantas veces que subimos Lo hicimos sin sentido Para ver desde arriba Con el corazón en la mano Vamos libres de pecado A la par de todos nuestros hermanos C#5 Vení D5 Subí Eb5 C#5 B5 F#5 G#5 La pibancia está flama C#5 Vení D5 Subí Eb5 C#5 B5 F#5 G#5 La pibancia está flama Eb5 C#5 B5 C#5 La pibancia está
share this page

See Also: