E-Chords
Talles Espaciales

El Chulo(Chords)

Talles Espaciales

roll up this ad to continue

Key: B
Intro: (B5 | G#5) x3 F# | Eb 

Riff 

e|------------------------------------------------------------------- 
B|--------7--------------------7------------------7------------------ 
G|--6--8-----8--6--------6--8-----8--6------6--8-----8--6------------ 
D|------------------9-------------------9------------------9--------- 
A|------------------------------------------------------------6------ 
E|------------------------------------------------------------------- 

e|------------------------------------------------------------------- 
B|--------7-----9---7----------7-----9--7---------7-----9--7--------- 
G|--6--8-----8-----------6--8-----8---------6--8-----8--------------- 
D|------------------------------------------------------------6------ 
A|------------------------------------------------------------------- 
E|------------------------------------------------------------------- 
F Bb C G# Sale loco del bar sus Ray-Ban negros no dejan ver F Bb C G# Sus ojos oscuros que intimidan a todo ser F Bb C G# No hace alianzas con federales ni cristales F Bb C G# Los corre y golpea al son de la correa B G# B G# Ese es El Chulo que camina por La Rioja B G# F# Eb Buscando su pisco B G# B G# Ese es El Chulo que camina por La Rioja B G# F# Eb Buscando su pisco F Bb C G# Camisa de flores y un jean con dragón bordado F Bb C G# El pisco le pega mal y hace que quiera golpear F Bb C G# Huele a picante, rompe cosas y se cae F Bb C G# El pisco al Chulo hoy oy oy oy oy oy oy oy oy oy oy B G# B G# Ese es El Chulo que camina por La Rioja B G# F# Eb Buscando su pisco B G# B G# Ese es El Chulo que camina por La Rioja B G# F# Eb Buscando su pisco B G# B G# Ese es El Chulo que camina por La Rioja B G# F# Eb Buscando su pisco B G# B G# Ese es El Chulo que camina por La Rioja B G# F# Eb Buscando su pisco C# B Eb C# B Ay, Chulo! Mirá como vas! F# Bb G# Tembloroso C# B Eb C# B La gente te mira no lo puede creer E F# estás roto otra, otra vez
share this page

See Also: