E-Chords
Talles Espaciales

Buen Lunes(Chords)

Talles Espaciales

roll up this ad to continue

Key: Cm
e|----------------- 
B|----10-----8----- 
G|-10-----7-------- 
D|----------------- 
A|----------------- 
E|----------------- 

e|--------------------------------------------------- 
B|----10-----8----4-----3-----4----8----------------- 
G|-10-----7-----5-----3-----5------7----------------- 
D|--------------------------------------------------- 
A|--------------------------------------------------- 
E|--------------------------------------------------- 

e|--------------------------------------------------- 
B|----10-----8----4-----3-----4----8----8----7------- 
G|-10-----7-----5-----3-----5------7----------------- 
D|--------------------------------------------------- 
A|--------------------------------------------------- 
E|--------------------------------------------------- 
Suena una alarma dice bip bip bip A empujar otra vez el carro Es impiedad como Sisifo con su piedra Cruzo los dedos en el baño Haciendo cosas raras para levantar Creo que dejé algunos años Tengo casi treinta, poca decencia Ya no puedo acomodarme a tus horarios Cm Solo estoy sobreviviendo Eb Dm Yugando acá Cm Solo estoy sobreviviendo Eb C# Llorando un día más Todo cambió desde que nos vimos la última vez Para peor... igual tranquilo que guardo rencor Cm Solo estoy sobreviviendo Eb Dm Yugando acá Cm Solo estoy sobreviviendo Eb C# Llorando un día más Cm Necesito algo que me haga levantar, levantar, ya Eb F Necesito algo que me haga levantar, levantar Cm Necesito algo que me haga levantar, levantar, ya Eb F Cm Necesito algo que me haga levantar, levantar
share this page

See Also: