E-Chords
Talisco

So Old(Chords)

Talisco

roll up this ad to continue

Key: C
Intro 
e|----3-----------0-----------3-----------3----------| 
B|------1-----1-----1-----1-----0-----0-----0--------| 
G|--------0-----------2-----------0-----------0------| 
D|----------------------2---2-------2-----------2----| x2 
A|--3-------3---0-----------------------2---------0--| 
E|---------------------------------------------------|
The song is played like that in every verse. verse 1 C Am Emadd9 Days seem so cold C Am Emadd9 The man will soon be old C Am Emadd9 He's the one who sees the time C Am Emadd9 The time spent so sublime Bridge 1 F C G Oh, no he can't give no more F C G* Oh, no he can't give no more
- Or you can play that : -  

e|----1-----------1-----------0-----------3----------|----1-----------1-----------0-----------7------------| 
B|------1-----1-----1-----1-----1-----1-----0-----0--|------1-----1-----1-----1-----1-----------8-----8----| 
G|--------2-----------2-----------0-----------0------|--------2-----------2-----------0---0-------7--------| 
D|---------------------------------------------------|--------------------------------------5-------5---5--| 
A|--------------------------3-------3----------------|--------------------------3-------3------------------| 
E|--1-------1---1-------1---------------3-------3----|--1-------1---1-------1------------------------------| 

e|--7-----------7-----------7--------| 
B|----8-----8-----8-----8-----8------| 
G|------7-----------7-----------7----| 
D|--------5---5-------5---5-------5--| 
A|-----------------------------------| 
E|-----------------------------------| 
C Am Emadd9 I will forgive your wrongs, they'll fade in time C Am Emadd9 I will forgive your wrongs, they'll fade in time F C G You should know, I will miss you F C G* You should know, I will miss you
verse 2 C Am Emadd9 Days pass by in his eyes C Am Emadd9 He remembers the young man who smiled C Am Emadd9 Now, he is the one who sees the time C Am Emadd9 The time spent over the years Bridge 2 F C G Oh, no he can't give no more F C G* Oh, no he can't give no more
- Or you can play that : -  

e|----1-----------1-----------0-----------3----------|----1-----------1-----------0-----------7------------| 
B|------1-----1-----1-----1-----1-----1-----0-----0--|------1-----1-----1-----1-----1-----------8-----8----| 
G|--------2-----------2-----------0-----------0------|--------2-----------2-----------0---0-------7--------| 
D|---------------------------------------------------|--------------------------------------5-------5---5--| 
A|--------------------------3-------3----------------|--------------------------3-------3------------------| 
E|--1-------1---1-------1---------------3-------3----|--1-------1---1-------1------------------------------| 

e|--7-----------7-----------7--------| 
B|----8-----8-----8-----8-----8------| 
G|------7-----------7-----------7----| 
D|--------5---5-------5---5-------5--| 
A|-----------------------------------| 
E|-----------------------------------| 
C Am Emadd9 I will forgive your wrongs, they'll fade in time C Am Emadd9 I will forgive your wrongs, they'll fade in time F C G You should know, I will miss you F C G* You should know, I will miss you
Instrumental part
e|----3-----------0-----------3-----------3----------| 
B|------1-----1-----1-----1-----0-----0-----0--------| 
G|--------0-----------2-----------0-----------0------| 
D|----------------------2---2-------2-----------2----| x2 
A|--3-------3---0-----------------------2---------0--| 
E|---------------------------------------------------| 
Then :
e|----1-----------1-----------0-----------3----------|----1-----------1-----------0-----------7------------| 
B|------1-----1-----1-----1-----1-----1-----0-----0--|------1-----1-----1-----1-----1-----------8-----8----| 
G|--------2-----------2-----------0-----------0------|--------2-----------2-----------0---0-------7--------| 
D|---------------------------------------------------|--------------------------------------5-------5---5--| 
A|--------------------------3-------3----------------|--------------------------3-------3------------------| 
E|--1-------1---1-------1---------------3-------3----|--1-------1---1-------1------------------------------| 

e|--7-----------7-----------7--------| 
B|----8-----8-----8-----8-----8------| 
G|------7-----------7-----------7----| 
D|--------5---5-------5---5-------5--| 
A|-----------------------------------| 
E|-----------------------------------| 
C Am Emadd9 I will forgive your wrongs, they'll fade in time C Am Emadd9 I will forgive your wrongs, they'll fade in time F C G You should know, I will miss you F C G* You should know, I will miss you
Outro e|----3-----------0-----------3-----------3----------| B|------1-----1-----1-----1-----0-----0-----0--------| G|--------0-----------2-----------0-----------0------| D|----------------------2---2-------2-----------2----| x2 A|--3-------3---0-----------------------2---------0--| E|---------------------------------------------------| End on : e|--3--| B|--1--| G|--0--| D|--2--| (strumming down) A|--3--| E|--x--| Tabbed by Aaronn_ ************************************ | x Dead note | (n) Ghost note ************************************
share this page

See Also: