E-Chords
Taize

Surrexit Christus(Chords)

Taize

roll up this ad to continue

Key: D
  
D  A  Bm F#m       G       D        Em7     A 
O__________    Sur-re-xit Christus, allelu-ia! 

D  A  Bm F#m       G      D       Em   A  D 
O__________    Can-ta-te Dominum, alle-lu-ia! 
                 ( Em A7 ) 


Melody 

e|-------------------------------------------| 
B|------------0--------0--0------------------| 
G|-------2--------2---2------2--2--0-0--2----| 
D|--4-------------------------------4--------| 
A|-------------------------------------------| 
E|-------------------------------------------| 
    O_______________ Surrexit Christus alleluia! 

e|-------------------------------------------| 
B|------------0--------0--2--3---------------| 
G|-------2--------2---2-------2--0-----------| 
D|--4--------------------------4--4-2--0-----| 
A|-------------------------------------------| 
E|-------------------------------------------| 
    O_______________ Cantate Dominum alleluia! 
share this page

See Also: