E-Chords
Taize

Confitemini Domino(Chords)

Taize

roll up this ad to continue

Key: D


D           Bm           Em7 Bm7 A  
Confitemini Domino, quo- ni- am  bonus. 
Em          C       Em    E4 A D 
Confitemini Domino, al-le-lu---ia. 


Melody 

e|------------------------------------------| 
B|------------------------------------------| 
G|--------------------------------2---------| 
D|--4-4-4-4-4--4-0-0----4-5-5-4-4---2--2----| 
A|------------------------------------------| 
E|------------------------------------------| 
  Confitemini Domino,   quo-ni-am   bonus. 

e|------------------------------------------| 
B|------------------------0-----------------| 
G|--0-0-0-0-0--0--------0---2-0-------------| 
D|---------------2-2------------4-2-4-------| 
A|------------------------------------------| 
E|------------------------------------------| 
  Confitemini Domino,   alle-lu-----ia. 
translation: Give thanks to the Lord for he is good. Ã bersetzung: Dankt dem Herrn, denn er ist gut.
share this page

See Also: