E-Chords
Tais Quais

Olha A Noiva Se Vai Linda(Chords)

Tais Quais

Key: C
 Introdução: (solo adaptado do piano para guitarra)   
  
e ----10/12-10--8(h)10-8(v)---------------------------------------------------   
B--8------------------------- ------10(v)-8(v)--10--5/8(v)--6(v)--5(v)--------        
G-----------------------------------------------------------------------------   
.....   

e-----10/12-10--8(h)10-8(v)------------------------------10/12--10(v)--8(v)---   
B----------------------------------10(v)-8(v)--10--5/8(v)---------------------       
G-----------------------------------------------------------------------------   
..... 
1ª parte: C G C Celina já te casaste..../já..../ o laço te apanhou... F C Deus queira...que / tu sempre digas.... G G7 G C Se bem estava/ Se bem estava / melhor estou. C G C Olha a noiva se vai linda / no..../ dia do seu noivado.. F C também eu queria ser.../ também eu queria ser.../ G G7 G C também eu queria / também queria / ser casado. C G C Ser casado e ter juízo / acho.../que é bonito estado... F C também eu queria ser.../ também eu queria ser.../ G G7 G C também eu queria / também queria / ser casado. Instrumental: solo igual à introdução............. 2ª parte (eu mantenho o tom, os acordes e o ritmo) C G C Tua boca é uma rosa.../ os.../ teus dentes, as folhinhas... F C e essas tuas..../ faces mimosas..../ G G7 G C são duas / são duas / lembranças minhas C G C Olha a noiva se vai linda / no..../ dia do seu noivado.. F C também eu queria ser.../ também eu queria ser.../ G G7 G C também eu queria / também queria / ser casado. C G C Ser casado e ter juízo / acho.../que é bonito estado... F C também eu queria ser.../ também eu queria ser.../ G G7 G C também eu queria / também queria / ser casado. Terceira e última parte: Instrumental: Aqui faço um solo igual ao refrão, e respetivos acordes, entrando uma voz com algumas palavras e frase, 'gritadas': CELINA!.... ESCUTA!.... NÃO ME DESLARGUES!!!! (VOZ)
           F                       C                G                       C   
    e ----------5--5-5(v)------------5----------------5------------5---------------------   
    B -5-6-8-----------------8-6-8-----8-8(v)-----8-8----8-8-----8---8-6-5---------------   
    G -------------------------------------------------------------------------7-5(v)----   

F C também eu queria ser.../ também eu queria ser.../ (REPETE 4 X e RÁPIDO!) G C também eu queria / também queria / ser casado. FINAL: G C

roll up this ad to continue

share this page

See Also: