E-Chords
Taikakuu

Saanko Luvan(Chords)

Taikakuu

roll up this ad to continue

Key: G
 
      G          D               G     G                C       D       G 
e -----------------------------------|-------------------------------------| 
h -----------------------------------|-/15-13-12-----12--13-------------12-| 
G --11h12--12--12p11--------11---12--|-----------14----------12--11--14----| 
D ---------------------14------------|-------------------------------------| 
A -----------------------------------|-------------------------------------|  
E -----------------------------------|-------------------------------------| 
    G            C       D                 Em    Em             C 
e ---------------------------------------------|--------------------| 
h -/15-13-12-----12------------------------12--|--------------------| 
G -----------14------12--11--12p11h12--s14-----|--12----------------| 
D ---------------------------------------------|------14--12--10----| 
A ---------------------------------------------|--------------------|  
E ---------------------------------------------|--------------------| 
       D                     G 
e --------------------------------| 
h --s13--12-----------------------| 
G --------------14--12--11--12----| 
D --------------------------------| 
A --------------------------------|  
E --------------------------------| 
|Em D C | Em D C G | Em D C D Nyt jo viimeinkin uskalsin, viereen parketin mennä minäkin, sieltä kaukaa jo sinut näin yllättäin |Em D C | Em D C G | Em D C D tähän tunnelmaan taivuttiin, taikaan tanssin kun vaivuttiin me vain, tätä iltaa en unohtaa, voi milloinkaan | G C D G | G C D G | Saanko luvan tanssittaa sua vielä uudestaan, tää rytmi kuljettaa näin meitä saa, | G C D Em | Em C D G | kun ruusunpunaisiin uskottiin unelmiin niin käy kun hetkestä kii tartuttiin |Em D C | Em D C G | Em D C D Suuret tunteet kun kuljettaa, pitkin lattiaa viedä vain sua saa, vaikka soi illan viimeinen toivoen | G C D G | G C D G | Saanko luvan tanssittaa sua vielä uudestaan, tää rytmi kuljettaa näin meitä saa, | G C D Em | Em C D G | kun ruusunpunaisiin uskottiin unelmiin niin käy kun hetkestä kii tartuttiin |Am D | G D Em | C Am C D | Nyt jo viimeinki uskalsin, viereen parketin mennä minäkin, sieltä kaukaa jo sinut näin yllättäin | G C D G | G C D G | Saanko luvan tanssittaa sua vielä uudestaan, tää rytmi kuljettaa näin meitä saa, | G C D Em | Em C D G | kun ruusunpunaisiin uskottiin unelmiin niin käy kun hetkestä kii tartuttiin
share this page

See Also: