E-Chords
Tagore

Pasto(Chords)

Tagore

roll up this ad to continue

Key: D
Intro: Am  D  G  C 
        Am  D  G  C 

Am 
Forcas que aparecem 
      D 
Nessa vida 
                  G 
Deixam farpas e feridas 
                  C    Em 
Preta ferrugem no coração 

Am                D 
Desavisadamente cedido 
                 G 
Como janta do inimigo 
                C      Em 
Como bala presa no canhão 
  Am 
Deserto ou não? 

Am                       D 
Morte faz valer à pena a vida 
                     G 
Seja larga ou tão contida 

Que nem toque a palma 
C         Em 
Da minha mão 

Am 
Mesmo que eu me cale 
       D 
De tão tenso 
                      G 
Vejo a vida como um incenso 
                  C     Em 
Se esvaindo pela imensidão 
  Am 
Depressa ou não 

Não sou eu quem 
                           G 
Vai dizer o que é certo ou bom 
    Am 
Por mais que eu pense e creia 

Que tudo é Deus 
                   G   Am  Bm  C 
E o nada é como um dom 

  Am                      D 
Metade do que eu queria dizer 
  G                      C 
Ficou bem na metade do caminho 
                   Am 
E como eu queria dizer 
           D             G 
Metade se foi, metade ficou 

  Am                      D 
Metade do que eu queria viver 
  G                      C 
Ficou bem na metade do caminho 
                   Am 
E como eu queria viver 
           D             G 
Metade se foi, me modificou 

Bridge:

Am Forcas que aparecem D Nessa vida G Deixam farpas e feridas C Em Preta ferrugem no coração Am D Desavisadamente cedido G Como janta do inimigo C Em Como bala presa no canhão Am Deserto ou não Não sou eu quem G Vai dizer o que é certo ou bom Am Por mais que eu pense e creia Que tudo é Deus G Am Bm C E o nada é como um dom
Am D Metade do que eu queria dizer G C Ficou bem na metade do caminho Am E como eu queria dizer D G Metade se foi, metade ficou Am D Metade do que eu queria viver G C Ficou bem na metade do caminho Am E como eu queria viver D G Metade se foi, me modificou Solo
   Am            D           G                   C          Em  
E|-----------------------------------------------------------------| 
B|-----------------------------------------------------------------| 
G|-----------------------------------------------------------------| 
D|------------------------7--9h10p9-7----------7-9b10r9-7----------| 
A|-0--2--3--3/7--5--7--9--------------10--7-10------------10--7-10-| 
E|-----------------------------------------------------------------| 

   Am            D             G              C       Em 
E|-----------------------------------------------------------------| 
B|-----------------------------------------------------------------| 
G|-----------------------------------------------------------------| 
D|------------------------7/9--7---------7/9--7--------------------| 
A|-0--2--3--3/7--5--7--9----------10-10----------10-10-------------| 
E|-----------------------------------------------------------------|
share this page

See Also: