E-Chords
Syd Matters

To All Of You(Chords)

Syd Matters

Key: Db
Capo on 4th fret
 
Intro 

Parte 1 de 3 

  Am 
E|-------------------------------------------------------------| 
B|------0------1-------------1-------0------1-------------1----| 
G|---0h4----0-------2p0---0-------0h4----0-------2p0---0-------| 
D|--------2------2------2------2-------2------2------2------0--| 
A|---0--------------0-------------0--------------0-------------| 
E|-------------------------------------------------------------|
Parte 2 de 3
  C 
E|-------------------------------------------------------------| 
B|------0------1-------------1-------0------1-------------0----| 
G|---0h4----0-------2p0---0-------0h4----0-------2p0---0-------| 
D|--------2------0------2------0-------2------0------0------0--| 
A|---3--------------3-------------3----------------------------| 
E|-----------------------------------------------2-------------|
Parte 3 de 3
  G 
E|-------------------------------------------------------------| 
B|------0------3-------------3-------0------3-------------3----| 
G|---0h4----0-------2p0---0-------0h4----0-------2p0---0-------| 
D|--------0------0------0------0-------0------0------0------0--| 
A|-------------------------------------------------------------| 
E|---3--------------3-------------3--------------3-------------|
G G7+ Am To all of you, American girls, it's sad to D G Imagine a world without you G7+ Am American girls I'd like to D G Be part of the world around you G7+ Am Driving a car by the seaside D Em Watching the world from the bright side Parte 1 de 3
  Am 
E|-------------------------------------------------------------| 
B|------0------1-------------1-------0------1-------------1----| 
G|---0h4----0-------2p0---0-------0h4----0-------2p0---0-------| 
D|--------2------2------2------2-------2------2------2------0--| 
A|---0--------------0-------------0--------------0-------------| 
E|-------------------------------------------------------------|
Parte 2 de 3
  C 
E|-------------------------------------------------------------| 
B|------0------1-------------1-------0------1-------------0----| 
G|---0h4----0-------2p0---0-------0h4----0-------2p0---0-------| 
D|--------2------0------2------0-------2------0------0------0--| 
A|---3--------------3-------------3----------------------------| 
E|-----------------------------------------------2-------------|
Parte 3 de 3
  G 
E|-------------------------------------------------------------| 
B|------0------3-------------3-------0------3-------------3----| 
G|---0h4----0-------2p0---0-------0h4----0-------2p0---0-------| 
D|--------0------0------0------0-------0------0------0------0--| 
A|-------------------------------------------------------------| 
E|---3--------------3-------------3--------------3-------------|
G G7+ Am To all of you, American girls in the movies D G No one can tell where your heart is G7+ Am American girls like dollies D Em With shiny smiles and plastic bodies Am C G I wish I had an American girlfriend Parte 1 de 3
  Am 
E|-------------------------------------------------------------| 
B|------0------1-------------1-------0------1-------------1----| 
G|---0h4----0-------2p0---0-------0h4----0-------2p0---0-------| 
D|--------2------2------2------2-------2------2------2------0--| 
A|---0--------------0-------------0--------------0-------------| 
E|-------------------------------------------------------------|
Parte 2 de 3
  C 
E|-------------------------------------------------------------| 
B|------0------1-------------1-------0------1-------------0----| 
G|---0h4----0-------2p0---0-------0h4----0-------2p0---0-------| 
D|--------2------0------2------0-------2------0------0------0--| 
A|---3--------------3-------------3----------------------------| 
E|-----------------------------------------------2-------------|
Parte 3 de 3
  G 
E|-------------------------------------------------------------| 
B|------0------3-------------3-------0------3-------------3----| 
G|---0h4----0-------2p0---0-------0h4----0-------2p0---0-------| 
D|--------0------0------0------0-------0------0------0------0--| 
A|-------------------------------------------------------------| 
E|---3--------------3-------------3--------------3-------------|
Parte 1 de 3
  Am 
E|-------------------------------------------------------------| 
B|------0------1-------------1-------0------1-------------1----| 
G|---0h4----0-------2p0---0-------0h4----0-------2p0---0-------| 
D|--------2------2------2------2-------2------2------2------0--| 
A|---0--------------0-------------0--------------0-------------| 
E|-------------------------------------------------------------|
Parte 3 de 3
  G 
E|-------------------------------------------------------------| 
B|------0------3-------------3-------0------3-------------3----| 
G|---0h4----0-------2p0---0-------0h4----0-------2p0---0-------| 
D|--------0------0------0------0-------0------0------0------0--| 
A|-------------------------------------------------------------| 
E|---3--------------3-------------3--------------3-------------|
G G7+ Am I cry sometimes walking around my own place D G Wondering why she cries sometimes G7+ Am Talking about her own place D G Somewhere around the mountains G7+ Am No one could dry her fountain D Em Till she got tired to complain Am C G That's when I fly to the wildland, to your land Parte 1 de 3
  Am 
E|-------------------------------------------------------------| 
B|------0------1-------------1-------0------1-------------1----| 
G|---0h4----0-------2p0---0-------0h4----0-------2p0---0-------| 
D|--------2------2------2------2-------2------2------2------0--| 
A|---0--------------0-------------0--------------0-------------| 
E|-------------------------------------------------------------|
Parte 2 de 3
  C 
E|-------------------------------------------------------------| 
B|------0------1-------------1-------0------1-------------0----| 
G|---0h4----0-------2p0---0-------0h4----0-------2p0---0-------| 
D|--------2------0------2------0-------2------0------0------0--| 
A|---3--------------3-------------3----------------------------| 
E|-----------------------------------------------2-------------|
Parte 3 de 3
  G 
E|-------------------------------------------------------------| 
B|------0------3-------------3-------0------3-------------3----| 
G|---0h4----0-------2p0---0-------0h4----0-------2p0---0-------| 
D|--------0------0------0------0-------0------0------0------0--| 
A|-------------------------------------------------------------| 
E|---3--------------3-------------3--------------3-------------|

roll up this ad to continue

share this page

See Also: